» » »

Capdown, Headstrong Bass tabs (ver.1)

Artists:  A B C D E F G H I J K L M N O P Q R S T U V W X Y Z # 

Headstrong Bass tabs (ver.1)

Capdown Tabs
 Rating:
4/5 (4 votes)
Headstrong lessons Tabs too difficult? Try these video lessons and learn fast
                Artist - Capdown
Song - Headstrong
Album - Civil disobedients

Intro
G|---------|------------------------------------
D|---------|------------------------------------
A|-444-222-|-66-666-/-141414-444-66-666-444-222-
E|---------|------------------------------------

verse
G|------------------------------------
D|------------------------------------
A|-66-666-/-141414-444-66-666-444-222-
E|------------------------------------
 
variations
G|---------------------------|---------|---------
D|---------------------------|--6------|-666-444-
A|-66-666-/-141414-444-66-666|-4-4-222-|-444-222-
E|---------------------------|---------|---------

chorus
G|-------------------------
D|---8----6----------2-----
A|--6-6--4-4--22-------4-2-
E|---------------2-4-------

G|-------------------------------
D|--------------------1/4~-------
A|----4p2h4p2h4p1~--------444-22-
E|-6-----------------------------

dance riff the bit right at the end
G|-4-----4----
D|---4x----4x-
A|------------
E|------------
            
Submit corrections

comments powered by Disqus
↑ Back to top | Capdown Bass for Headstrong. Lyrics for acoustic guitar and electric guitar. Tablatures and chords are parodies/interpretations of the original songs. You may use it for private study, scholarship, research or language learning purposes only