>
 >
Faith No More

Faith No More Guitar Tabs

Capdown - Faith No More chords, tabs, tablatures, lyrics

Guitar lessons | Add/correct | Request | Top 50 tabs Artists:  A B C D E F G H I J K L M N O P Q R S T U V W X Y Z 0-9

Faith No More Guitar Tabs – Capdown

CD, Sheet music, Poster

Do you like Faith No More? Share with your friends now
Tabs
TUNING: Standard (E A D G B e)
NOTES: This is the whole song, but without the ska chords because I can't work
them out. Listen to song for correct strumming patterns, structure, etc.

INTRO
e|---------------------------------------------------------|
b|---------------------------------------------------------|
G|---------------------------------------------------------|
D|----------------------7-7--7-6-6--6-6-6--6-6-6--6-6-6--6-|
A|-8-8--8-8-8--8-8-8--8-5-5--5-4-4--4-4-4--4-4-4--4-4-4--4-|
E|-6-6--6-6-6--6-6-6--6------------------------------------|
pm * *  * * *  * * *  * * *  * * *  * * *  * * *  * * *  *

e|--------------------------------------------------------|
b|--------------------------------------------------------|
G|------------------------------------------------6-6-5-5-|
D|------------------------------------------------4-4-3-3-|
A|-4-4--4-4-4--4-4-4--4-4-4--4-7-7--7-7-7--7-7-7----------|
E|-2-2--2-2-2--2-2-2--2-2-2--2-5-5--5-5-5--5-5-5----------|
pm * *  * * *  * * *  * * *  * * *  * * *  * * *


RIFF 1
e|---------------|
b|---------------|
G|---------------|
D|-4---7---4---7-|
A|-4---7---4---7-|
E|-2---5---2---5-|

RIFF 2
e|-----------------------------|
b|-----------------------------|
G|----6------8------9----------|
D|-8--6---8--8---8--9--4-4-7-7-|
A|-8--4---8--6---8--7--4-4-7-7-|
E|-6------6------6-----2-2-5-5-|

RIFF 3
e|----------------------------------------------------|
b|----------------------------------------------------|
G|----------------6--6---6--------------------6-6-5-5-|
D|-8--8-------4\3-6--6---6---4--4---4--7--7---6-6-5-5-|
A|-8--8---4/5-----4--4---4---4--4---4--7--7---4-4-3-3-|
E|-6--6--------------------0-2--2---2--5--5-----------|


THEN REPEAT RIFF 3 BUT WHERE I HAVE ADDED THE COLONS ABOVE, PLAY THIS, PALM MUTED:
e|-------------------------------------------|
b|-------------------------------------------|
G|-------------------------------------------|
D|-4--4---4----------------------------------|
A|-4--4---4--7-7-7-7-7-7-7-7-7-7-7-7-7-7-7-7-|
E|-2--2---2--5-5-5-5-5-5-5-5-5-5-5-5-5-5-5-5-|
pm* * * * * * * * * * * * * * * * * * * * * *


RIFF 4
e|---------------------------------------------------------|
b|---------------------------------------------------------|
G|-------6--------------8--------------9-------------------|
D|-------6--------------8--------------9-------------------|
A|-8-8-8-4--8-8-8-8-8-8-6--8-8-8-8-8-8-7---4-4-4-4-7-7-7-7-|
E|-6-6-6----6-6-6-6-6-6----6-6-6-6-6-6-----2-2-2-2-5-5-5-5-|
pm * * *    * * * * * *    * * * * * *     * *


RIFF 5
e|-----------------------------------------------------|
b|-----------------------------------------------------|
G|--------------------6-6-4-4----------------------7-7-|
D|--------------------6-6-4-4-8-8--8-8-8--8-8-8--8-7-7-|
A|-7-7--7-7-7--7-7-7--4-4-2-2-8-8--8-8-8--8-8-8--8-5-5-|
E|-5-5--5-5-5--5-5-5----------6-6--6-6-6--6-6-6--6-----|
pm * *  * * *  * * *

e|--------------------------------------------------------|
b|--------------------------------------------------------|
G|-7-6-6--6-6-6--6-6-6--6-6-6--6--------------------------|
D|-7-6-6--6-6-6--6-6-6--6-6-6--6-4-4--4-4-4--4-4-4--4-4-4-|
A|-5-4-4--4-4-4--4-4-4--4-4-4--4-4-4--4-4-4--4-4-4--4-4-4-|
E|-------------------------------2-2--2-2-2--2-2-2--2-2-2-|


RIFF 6
e|----------------------------------------------------|
b|----------------------------------------------------|
G|----------------------------------------------------|
D|----------------------------------------------------|
A|-4-0--4-0--4-0--4-0--4--3--4-0--4-0--4-0--4-0--4--3-|
E|----------------------------------------------------|

e|----------------------------------------------------|
b|----------------------------------------------------|
G|----------------------------------------------------|
D|----------------------------------------------------|
A|-4-0--4-0--4-0--4-0--6--7--4-0--4-0--4-0--4-0--4--3-|
E|----------------------------------------------------|

e|--------------------------|
b|--------------------------|
G|--------------------------|
D|--------------------------|
A|-4-0--4-0--4-0--4-0--6--7-|
E|--------------------------|





Comments


Popular Capdown tabs & chords
Bitches And Nike Shoes Bass Tabs
Civil Disobedients Bass Tabs
Ska Wars 2 Bass Tabs
Act Youe Rage Tabs
Bitches And Nike Shoes Tabs
Bitches And Nike Shoes 1 Tabs
New Revolutionaries Tabs
Ska Wars 1 Tabs
Unite To Progress Tabs
Ska Wars Ukulele


Song lyrics



↑ Back to top | Tablatures and chords are parodies/interpretations of the original songs. You may use it for private study, scholarship, research or language learning purposes only
© 2014 AZChords.com Contact us | Privacy policy | DMCA | Add/correct tabs | Request tabs | Top 50 tabs