» » »

Cousin Cleotis Bass tabs (ver.1)

Artists:  A B C D E F G H I J K L M N O P Q R S T U V W X Y Z # 

Cousin Cleotis Bass tabs (ver.1)

Capdown
Rating:
0/5 (0 votes)

Hard to play? Try these video lessons and learn fast.
                written by capdown

intro

G--------------------------------------
D-----------1--------------------------
A-3-2-1---3--1--3-2-1--3-3-3-2-2-2-3---
E--------------------------------------
verse 1 

G--------------------
D--------------------
A-----2--2-1--1------
E-1-4-----------4--4-X2

G---------------------------------
D---------------------------------
A-----2--2-1--1------3-3-3-2-2-2-3
E-1-4-----------4--4--------------

verse 2

G--------------------
D--------------------
A-----2--2-1--1------
E-1-4-----------4--4-X4

Chorus

G---------------------------------------------------------
D---------------------------------------------------------
A-3-2-1-2-3-2-1-2-3-2-1-2-----3-2-1-2-3-2-1-2-3-2-1-2-----
E-----------------------------1-1----------------------------1-1-

verse 3

G--------------------
D--------------------
A-----2--2-1--1------
E-1-4-----------4--4-X4

G--------------------------------------
D--------------------------------------
A------2--2-1--1-----------2--2-1--1---
E-1--1-----------4--4-1--1-----------4-

bridgey thing

G---------------
D-------2-------
A---2-1-----2-1-
E-1-------1-----

bridge 2

G------------------------------------------------------------------
D-------2----------------------------------------------------------
A---2-1----3-2-1-2-3-2-1-2-3-2-1-2-----3-2-1-2-3-2-1-2-3-3-3-2-2-2-
E-1-------X4--------------------------1-1-----------------------------

ending

G--------------------------
D-------2------------------
A---2-1----3-3-3-2-2-2-3---
E-1-------3-----------------
on the e string above, try and work out how many times the 3rd fret is played....
            
Hard to play? Try these video lessons and learn fast. | Correct




comments powered by Disqus
↑ Back to top | Tablatures and chords are parodies/interpretations of the original songs. You may use it for private study, scholarship, research or language learning purposes only