» » »

Cousin Cleotis Tabs (ver.1)

Artists:  A B C D E F G H I J K L M N O P Q R S T U V W X Y Z # 

Cousin Cleotis Tabs (ver.1)

Capdown
Rating:
2/5 (1 vote)

Hard to play? Try these video lessons and learn fast.
                -------------------------------------------------------------------------------
-------------------------------------------------------------------------------

Tuning: E

any feedback corrections plz mail me:)

intro:

e|-------------------------------------------|
B|-------------------------------------------|
G|------------8------------------------------|
D|-10-9-8--10-8-8--10-9-8--10-10-10-9-9-9-10-|
A|-10-9-8--10-6-8--10-9-8--10-10-10-9-9-9-10-|
E|--8-7-6---8---6--8--7-6--8--8--8--7-7-7-8--|

riff 1:

e|------------------------|
B|------------------------|
G|-10-10-x-10-8-8-7-7-9-9-|
D|-10-10-x-10-8-8-7-7-9-9-|
A|-8--8--x-8--6-6-5-5-7-7-|
E|------------------------|

riff 2
e|-------------------|
B|-------------------|
G|-------------------|
D|-10-10-10-9-9-9-10-|
A|-10-10-10-9-9-9-10-|
E|-8--8--8--7-7-7-8--|

chourus:
e|---------------------------------------------------------------------------|
B|---------------------------------------------------------------------------|
G|-5-5-4-4-3-3-4-4-5-5-4-4-3-3-4-4---@-------------------------------------------------------|
D|-5-5-4-4-3-3-4-4-5-5-4-4-3-3-4-4-3-@---------------------------------------------------------|
A|-3-3-2-2-1-1-2-2-3-3-2-2-1-1-2-2-3---------------------------------------------------------|
E|---------------------------------1------------------------------------------|

riff 3
e|-----------------------------------|
B|-----------------------------------|
G|-10-10--10--8-8--8--7-7--7--9-9--9-|
D|-10-10--10--8-8--8--7-7--7--9-9--9-|
A|-8--8---8---6-6--6--5-5--5--7-7--7-|
E|-----------------------------------|

riff 4
let ring
e|---------------------------------|
B|---------------------------------|
G|-10-------8-------7-------9------|
D|-10-------8-------7-------9------|
A|-8--------6-------5-------7------|
E|---------------------------------|

song structure:

intro
riff 1 x3
riff 2
riff 1 x8
chourus x2
riff 1 x8
fiff 3 x2
fiff 4 x2
riff 1 x4
chourus x2
riff 1 x8
chourus x2
riff 1 x8
fiff 4 x2
riff 1 x4 (with distortion)
chourus x2
riff 1 x2 (with distortion) 



| @  pick slide
| /  slide up
| \  slide down
| h  hammer-on
| p  pull-off
| ~  vibrato
| +  harmonic
| x  Mute note
===============================================================================
            
Hard to play? Try these video lessons and learn fast. | Correct




comments powered by Disqus
↑ Back to top | Tablatures and chords are parodies/interpretations of the original songs. You may use it for private study, scholarship, research or language learning purposes only