» » »

Capdown, Civil Disobedients Bass tabs (ver.1)

Artists:  A B C D E F G H I J K L M N O P Q R S T U V W X Y Z # 

Civil Disobedients Bass tabs (ver.1)

Capdown Tabs
 Rating:
4/5 (4 votes)
Civil Disobedients lessons Tabs too difficult? Try these video lessons and learn fast
1
                -------------------------------------------------------------------------------
-------------------------------------------------------------------------------


Band:Capdown

  my first tab so i hope its good'nuff...enjoy

 Intro
G|---------------------------------------------------------------------------|
D|---------------------------------------------------------------------------|
A|------------------55555555-------------------------------------------------|
E|33333333-88888888----------333333333---------------------------------------|

 Verse
G|---------------------------------------------------------------------------|
D|45--45--45--4/5------------------------------------------------------------|
A|--5---5---5 ---53----------------------------------------------------------|
E|---------------------------------------------------------------------------|

 Bridge
G|--------------------|-------------------------------------------------------|
D|--------------------|-------------------------------------------------------|
A|--------------535---|or--5353-----------------------------------------------| 
E|33-3333-3333-3------|-------------------------------------------------------|

"We Will Take You On..."
G|---------------------------------------------------------------------------|
D|55-53---------------------------------------------------------------- -----|
A|-----53-333-5555-----------------------------------------------------------|
E|---------------------------------------------------------------------------|
 
 End Bit
G|---------------------------------------------------------------------------|
D|-------------5-------------------------------------------------------------|
A|55555555---5---------------------------------------------------------------|
E|---------3-----3-----------------------------------------------------------|

Mess around a bit with the order and in some parts strum a couple extra times
but apart from that ur all set... great tune.




| /  slide up
| \  slide down
| h  hammer-on
| p  pull-off
| ~  vibrato
| +  harmonic
| x  Mute note
===============================================================================
            
Submit corrections

comments powered by Disqus
↑ Back to top | Capdown Bass for Civil Disobedients. Lyrics for acoustic guitar and electric guitar. 1 Tablatures and chords are parodies/interpretations of the original songs. You may use it for private study, scholarship, research or language learning purposes only