>
 >
Civil Disobediants

Civil Disobediants Guitar Tabs

Capdown - Civil Disobediants chords, tabs, tablatures, lyrics

Guitar lessons | Add/correct | Request | Top 50 tabs Artists:  A B C D E F G H I J K L M N O P Q R S T U V W X Y Z 0-9

Civil Disobediants Guitar Tabs – Capdown

CD, Sheet music, Poster

Do you like Civil Disobediants? Share with your friends now
Tabs
ANOTHER MINT CAPDOWN SONG HOPE YOU ENJOY!

INTRO (FAST) PLAY THIS 4 TIMES!
e----------------------------------------------------------------------|
B----------------------------------------------------------------------|
G----------------------------------------------------------------------|
D----------------------------------------------------------------------|
A10-8-10-8-1010-8-10--------------------------------------------------|
E---------------------8-6-8-6-88-6-8-10-8-10-8-1010-8-10-3-1-3-1-33-1-3|

VERSE 1 PLAY WITHOUT DISTORTION AND STRUM UPWARDS
E------3--3-3-3-3-3-3-3-2-2-3-3-3-3-3-3-3-4-4--------------------------|
B-----3---3-3-3-3-3-3-3-2-2-3-3-3-3-3-3-3-4-4--------------------------|
G----4----4-4-4-4-4-4-4-3-3-4-4-4-4-4-4-4-5-5--------------------------|
D---0------------------------------------------------------------------|
A----------------------------------------------------------------------|
E----------------------------------------------------------------------|

BRIDGE 1
E-----------------------------------|
B-----------------------------------|
G-----------------------------------|
D-5-5-555-5-555-5-55-0---0----------|
A-5-5-555-5-555-5-55---1---1--------|
E3-3-333-3-333-3-33----------------|

Bridge 2

E-----------------------------------|
B-----------------------------------|
G-----------------------------------|
D-----5-----5-----5-0---0-----------|
A---5-----5-----5-----1---1---------|
E-3-----3-----3---------------------|

CHORUS

e------------------------------------------------|
B------------------------------------------------|
G-------7-6-5-5-5-5-6-6-6-------7-6-5-5-5-5-3-3-3|
D-5-5-5-7-6-55-5-5-6-6-6-5-5-5-7-6-5-5-5-5-3-3-3|
A-5-5-5-5-4-3-3-3-3-4-4-4-5-5-5-5-4-3-3-3-3-1-1-1|
E-3-3-3-------------------3-3-3------------------|

VERSE 2 PLAY WITH DOSTORTION AND PALM MUTE

e------------------------------------------------|
B------------------------------------------------|
G-------7-6-5-5-5-5-6-6-6-------7-6-5-5-5-5-3-3-3|
D-5-5-5-7-6-55-5-5-6-6-6-5-5-5-7-6-5-5-5-5-3-3-3|
A-5-5-5-5-4-3-3-3-3-4-4-4-5-5-5-5-4-3-3-3-3-1-1-1|
E-3-3-3-------------------3-3-3------------------|

HERES HOW IT GOES THE BASICS BUT YOUR GUNNA HAVE TO FIND HOW MANY TIMES
INTRO 
VERSE 1
BRIDGE 1
BRIDGE 2
CHORUS
VERSE 1
BRIDGE 1
BRIDGE 2
CHORUS
VERSE 1
BRIDGE 1
BRIDGE 2
CHORUS
VERSE 2
CHORUS
INTRO





Comments


Popular Capdown tabs & chords
An A-political Stand Of Reason Bass Tabs
Bitches And Nike Shoes Bass Tabs
Civil Disobedients Bass Tabs
The Neverlution Bass Tabs
Bitches And Nike Shoes Tabs
Bitches And Nike Shoes 1 Tabs
Bitches And Nike Shoes 2 Tabs
Faith No More Tabs
Kained But Able Tabs
Unite To Progress Tabs


Song lyrics



↑ Back to top | Tablatures and chords are parodies/interpretations of the original songs. You may use it for private study, scholarship, research or language learning purposes only
© 2014 AZChords.com Contact us | Privacy policy | DMCA | Add/correct tabs | Request tabs | Top 50 tabs