» » »

Capdown, Civil Disobediants Tabs (ver.1)

Artists:  A B C D E F G H I J K L M N O P Q R S T U V W X Y Z # 

Civil Disobediants Tabs (ver.1)

Capdown Tabs
Rating:
0/5 (0 votes)
Civil Disobediants lessons Tabs too difficult? Try these video lessons and learn fast
                ANOTHER MINT CAPDOWN SONG HOPE YOU ENJOY!

INTRO (FAST) PLAY THIS 4 TIMES!
e----------------------------------------------------------------------|
B----------------------------------------------------------------------|
G----------------------------------------------------------------------|
D----------------------------------------------------------------------|
A—10-8-10-8-1010-8-10--------------------------------------------------|
E---------------------8-6-8-6-88-6-8-10-8-10-8-1010-8-10-3-1-3-1-33-1-3|

VERSE 1 PLAY WITHOUT DISTORTION AND STRUM UPWARDS
E------3--3-3-3-3-3-3-3-2-2-3-3-3-3-3-3-3-4-4--------------------------|
B-----3---3-3-3-3-3-3-3-2-2-3-3-3-3-3-3-3-4-4--------------------------|
G----4----4-4-4-4-4-4-4-3-3-4-4-4-4-4-4-4-5-5--------------------------|
D---0------------------------------------------------------------------|
A----------------------------------------------------------------------|
E----------------------------------------------------------------------|

BRIDGE 1
E-----------------------------------|
B-----------------------------------|
G-----------------------------------|
D-5-5-555-5-555-5-55-0---0----------|
A-5-5-555-5-555-5-55---1---1--------|
E—3-3-333-3-333-3-33----------------|

Bridge 2

E-----------------------------------|
B-----------------------------------|
G-----------------------------------|
D-----5-----5-----5-0---0-----------|
A---5-----5-----5-----1---1---------|
E-3-----3-----3---------------------|

CHORUS

e------------------------------------------------|
B------------------------------------------------|
G-------7-6-5-5-5-5-6-6-6-------7-6-5-5-5-5-3-3-3|
D-5-5-5-7-6-5—5-5-5-6-6-6-5-5-5-7-6-5-5-5-5-3-3-3|
A-5-5-5-5-4-3-3-3-3-4-4-4-5-5-5-5-4-3-3-3-3-1-1-1|
E-3-3-3-------------------3-3-3------------------|

VERSE 2 PLAY WITH DOSTORTION AND PALM MUTE

e------------------------------------------------|
B------------------------------------------------|
G-------7-6-5-5-5-5-6-6-6-------7-6-5-5-5-5-3-3-3|
D-5-5-5-7-6-5—5-5-5-6-6-6-5-5-5-7-6-5-5-5-5-3-3-3|
A-5-5-5-5-4-3-3-3-3-4-4-4-5-5-5-5-4-3-3-3-3-1-1-1|
E-3-3-3-------------------3-3-3------------------|

HERES HOW IT GOES THE BASICS BUT YOUR GUNNA HAVE TO FIND HOW MANY TIMES
INTRO 
VERSE 1
BRIDGE 1
BRIDGE 2
CHORUS
VERSE 1
BRIDGE 1
BRIDGE 2
CHORUS
VERSE 1
BRIDGE 1
BRIDGE 2
CHORUS
VERSE 2
CHORUS
INTRO
            

comments powered by Disqus
↑ Back to top | Capdown Tabs for Civil Disobediants. Lyrics for acoustic guitar and electric guitar. Tablatures and chords are parodies/interpretations of the original songs. You may use it for private study, scholarship, research or language learning purposes only