» » »

Capdown, Act Youe Rage Tabs (ver.1)

Artists:  A B C D E F G H I J K L M N O P Q R S T U V W X Y Z # 

Act Youe Rage Tabs (ver.1)

Capdown Tabs
 Rating:
4/5 (4 votes)
Act Youe Rage lessons Tabs too difficult? Try these video lessons and learn fast
                Tuning: Standard
where so i had a good listen and then tabbed this. it sounds right to
me and i hope it helps you.

Intro- Drums then sax- intro tabbed for sax
e---------------------------------------------------------------------
b---------------6------------77-66-44---------------------------------
g-8-8-88---8-8-8------------------------------------------------------
d--------7--------7-8-8-88-7----------8-8-88-7------------------------
a---------------------------------------------------------------------
e---------------------------------------------------------------------

guitar kicks in
e---------------------------------------------------------------------
b----------77-66-44---------77-66-44---------77-66-44---------77-66-44
g-8-8-887-----------8-8-887-------------------------------------------
d-8-8-887-----------8-8-887----------8-8-88-7--------8-8-88-7---------
a-6-6-667-----------6-6-667----------8-8-88-7--------8-8-88-7---------
e-------5-----------------5----------6-6-66-5--------6-6-66-5---------

e---------------------------------------------------------------------
b----------77-66-44---------77-66-44---------77-66-44-----------------
g-8-8-887-----------8-8-887-------------------------------------------
d-8-8-887-----------8-8-887----------8-8-88-7-------------------------
a-6-6-667-----------6-6-667----------8-8-88-7-------------------------
e-------5-----------------5----------6-6-66-5-------------------------

e---------------------------------------------------------------------
b---------------------------------------------------------------------
g---------------------------------------------------------------------
d-888777666555-4-4----------------------------------------------------
a-888777666555-4-4----------------------------------------------------
e-666555444333-2-2----------------------------------------------------

verse x2
e-6x6xx6x6--4-6--8--8--8--8-7x777-6x6xx6x6-4-6--8--8--8--8--9x-9--9--9
b-6x6xx6x6--6-8-10-10-10-10-7x777-6x6xx6x6-6-8-10-10-10-10-11x11-11-11
g-7x7xx7x7--6-8-10-10-10-10-8x888-7x7xx7x7-6-8-10-10-10-10-11x11-11-11
d-8x8xx8x8--6-8-10-10-10-10-9x999-8x8xx8x8-6-8-10-10-10-10-11x11-11-11
a-8x8xx8x8--4-6--8--8--8--8-9x999-8x8xx8x8-4-6--8--8--8--8--9x-9--9--9
e-6x6xx6x6------------------7x777-6x6xx6x6----------------------------

break
e---------------------------------------------------------------------
b---------------------------------------------------------------------
g---------------------------------------------------------------------
d-8-pick scr*pe-9-9-9-9-9-9-9-8-8-8-8-8-8-8-8-9-9-9-9-777777----------
a-8-------------9-9-9-9-9-9-9-8-8-8-8-8-8-8-8-9-9-9-9-777777----------
e-6-------------7-7-7-7-7-7-7-6-6-6-6-6-6-6-6-7-7-7-7-555555----------

verse x2
e-6x6xx6x6--4-6--8--8--8--8-7x777-6x6xx6x6-4-6--8--8--8--8--9x-9--9--9
b-6x6xx6x6--6-8-10-10-10-10-7x777-6x6xx6x6-6-8-10-10-10-10-11x11-11-11
g-7x7xx7x7--6-8-10-10-10-10-8x888-7x7xx7x7-6-8-10-10-10-10-11x11-11-11
d-8x8xx8x8--6-8-10-10-10-10-9x999-8x8xx8x8-6-8-10-10-10-10-11x11-11-11
a-8x8xx8x8--4-6--8--8--8--8-9x999-8x8xx8x8-4-6--8--8--8--8--9x-9--9--9
e-6x6xx6x6------------------7x777-6x6xx6x6----------------------------

break
e---------------------------------------------------------------------
b---------------------------------------------------------------------
g---------------------------------------------------------------------
d-8-pick scr*pe-9-9-9-9-9-9-9-8-8-8-8-8-8-8-8-9-9-9-9-777777----------
a-8-------------9-9-9-9-9-9-9-8-8-8-8-8-8-8-8-9-9-9-9-777777----------
e-6-------------7-7-7-7-7-7-7-6-6-6-6-6-6-6-6-7-7-7-7-555555----------

pre chorus
e---------------------------------------------------------------------
b---------------------------------------------------------------------
g---------------------------------------------------------------------
d-8-8-8-8-8-8-8-8-9-9-9-9-7-7-7-7--8-8-8-8-8-8-8-8-9-9-9-9-7-7-7-7----
a-8-8-8-8-8-8-8-8-9-9-9-9-7-7-7-7--8-8-8-8-8-8-8-8-9-9-9-9-7-7-7-7----
e-6-6-6-6-6-6-6-6-7-7-7-7-5-5-5-5--6-6-6-6-6-6-6-6-7-7-7-7-5-5-5-5----

chorus
e---------------------------------------------------------------------
b---------------------------------------------------------------------
g-8-8-8-8-8-11-11-11-----------------8-8-8-8-8-11-11-11---------------
d-8-8-8-8-8-11-11-11-8-8-8-8-6-6-6-6-8-8-8-8-8-11-11-11-8-8-8-8-6-6-6-
a-6-6-6-6-6--9--9--9-8-8-8-8-6-6-6-6-6-6-6-6-6--9--9--9-8-8-8-8-6-6-6-
e--------------------6-6-6-6-4-4-4-4--------------------6-6-6-6-4-4-4-

e---------------------------------------------------------------------
b---------------------------------------------------------------------
g-8-8-8-8-8-11-11-11-----------------8-8-8-8-8-11-11-11---------------
d-8-8-8-8-8-11-11-11-8-8-8-8-6-6-6-6-8-8-8-8-8-11-11-11---------------
a-6-6-6-6-6--9--9--9-8-8-8-8-6-6-6-6-6-6-6-6-6--9--9--9---------------
e--------------------6-6-6-6-4-4-4-4----------------------------------

e---------------------------------------------------------------------
b---------77-66-44---------77-66-44---------77-66-44------------------
g---------------------------------------------------------------------
d-8-8-8-8----------8-8-8-8----------8-8-8-8----------8-pick scr*pe----
a-8-8-8-8----------8-8-8-8----------8-8-8-8----------8----------------
e-6-6-6-6----------6-6-6-6----------6-6-6-6----------6----------------

verse x4 no singing
e-6x6xx6x6--4-6--8--8--8--8-7x777-6x6xx6x6-4-6--8--8--8--8--9x-9--9--9
b-6x6xx6x6--6-8-10-10-10-10-7x777-6x6xx6x6-6-8-10-10-10-10-11x11-11-11
g-7x7xx7x7--6-8-10-10-10-10-8x888-7x7xx7x7-6-8-10-10-10-10-11x11-11-11
d-8x8xx8x8--6-8-10-10-10-10-9x999-8x8xx8x8-6-8-10-10-10-10-11x11-11-11
a-8x8xx8x8--4-6--8--8--8--8-9x999-8x8xx8x8-4-6--8--8--8--8--9x-9--9--9
e-6x6xx6x6------------------7x777-6x6xx6x6----------------------------

e---------------------------------------------------------------------
b---------------------------------------------------------------------
g-8-8-887--8-8-887----------------------------------------------------
d-8-8-887--8-8-887--8-8-88-7--8-8-88-7--------------------------------
a-6-6-667--6-6-667--8-8-88-7--8-8-88-7--------------------------------
e-------5--------5--6-6-66-5--6-6-66-5--------------------------------

e---------------------------------------------------------------------
b---------------------------------------------------------------------
g-8-8-887--8-8-887----------------------------------------------------
d-8-8-887--8-8-887--8-8-88-7--888777666555-4-4------------------------
a-6-6-667--6-6-667--8-8-88-7--888777666555-4-4------------------------
e-------5--------5--6-6-66-5--666555444333-2-2------------------------

pre chorus x 2
e---------------------------------------------------------------------
b---------------------------------------------------------------------
g---------------------------------------------------------------------
d-8-8-8-8-8-8-8-8-9-9-9-9-7-7-7-7--8-8-8-8-8-8-8-8-9-9-9-9-777777-----
a-8-8-8-8-8-8-8-8-9-9-9-9-7-7-7-7--8-8-8-8-8-8-8-8-9-9-9-9-777777-----
e-6-6-6-6-6-6-6-6-7-7-7-7-5-5-5-5--6-6-6-6-6-6-6-6-7-7-7-7-555555-----

chorus
e---------------------------------------------------------------------
b---------------------------------------------------------------------
g-8-8-8-8-8-11-11-11-----------------8-8-8-8-8-11-11-11---------------
d-8-8-8-8-8-11-11-11-8-8-8-8-6-6-6-6-8-8-8-8-8-11-11-11-8-8-8-8-6-6-6-
a-6-6-6-6-6--9--9--9-8-8-8-8-6-6-6-6-6-6-6-6-6--9--9--9-8-8-8-8-6-6-6-
e--------------------6-6-6-6-4-4-4-4--------------------6-6-6-6-4-4-4-

e---------------------------------------------------------------------
b---------------------------------------------------------------------
g-8-8-8-8-8-11-11-11-----------------8-8-8-8-8-11-11-11---------------
d-8-8-8-8-8-11-11-11-8-8-8-8-6-6-6-6-8-8-8-8-8-11-11-11---------------
a-6-6-6-6-6--9--9--9-8-8-8-8-6-6-6-6-6-6-6-6-6--9--9--9---------------
e--------------------6-6-6-6-4-4-4-4----------------------------------

outro
e---------------------------------------------------------------------
b---------------------------------------------------------------------
g---------------------------------------------------------------------
d-8-8-8-8-7-7-7-7-8-8-8-8-7-7-7-7-8-8-8-8-7-7-7-7-888777666555-4-4----
a-8-8-8-8-7-7-7-7-8-8-8-8-7-7-7-7-8-8-8-8-7-7-7-7-888777666555-4-4----
e-6-6-6-6-5-5-5-5-6-6-6-6-5-5-5-5-6-6-6-6-5-5-5-5-666555444333-2-2--6*

*= played on bass and let ring

well this is my first tab so be nice and i hope to have feedback and 
comments to my e-mail address. thank you for listening to good music.
            
Submit corrections

comments powered by Disqus
↑ Back to top | Capdown Tabs for Act Youe Rage. Lyrics for acoustic guitar and electric guitar. Tablatures and chords are parodies/interpretations of the original songs. You may use it for private study, scholarship, research or language learning purposes only