» » »

Cantrell Jerry, She Was My Girl Tabs (ver.1)

Artists:  A B C D E F G H I J K L M N O P Q R S T U V W X Y Z # 

She Was My Girl Tabs (ver.1)

Cantrell Jerry Tabs
 Rating:
4/5 (4 votes)
She Was My Girl lessons Tabs too difficult? Try these video lessons and learn fast
1
                
Tuning : 1/2 step down 

Notation:
--7b(9)---- bend 1 step
--7b(9-9)-- bend 1 step and pick while holding the bend
--7b(9r7)-- bend 1 step and release to first position (pick only before bend)
--7h9------ hammer on
--9p7------ pull off
--7/9-----  slide from 7 to 9
-7-/9-----  pick 7 then rest then slide
AH          pinched harmonics
harm        natural harmonics
pm          palm mute
/\/\/\/\    wide vibrato with tremolo bar
    very fast and wery wide vibrato with tremolo bar
~~~~~~~~    vibrato with fret hand
wah:  o     open pedal (bass)
      +     closed pedal (treble)

Riff A: verse
eb:-|----------------------------------|-
Bb:-|----------------------------------|-
Gb:-|----------------------------------|-
Db:-|--4-4--4/5-5-5--4-4--4/5-5-5-5-2--|-
Ab:-|--2-2--2/3-3-3--2-2--2/3-3-3-3-0--|-
Eb:-|----------------------------------|-

Riff B: chorus (she was my girl, use to be...)
eb:-|------------------------------|-
Bb:-|------------------------------|-
Gb:-|---4-4-5-5--2-2-2-2-2-2-2-----|-
Db:-|---4-4-5-5--2-2-2-2-2-2-2-----|-
Ab:-|---2-2-3-3--0-0-0-0-0-0-0-----|-
Eb:-|------------------------------|-
            
Submit corrections

comments powered by Disqus
↑ Back to top | Cantrell Jerry Tabs for She Was My Girl. Lyrics for acoustic guitar and electric guitar. 1 Tablatures and chords are parodies/interpretations of the original songs. You may use it for private study, scholarship, research or language learning purposes only