» » »

Cantrell Jerry, Hurt A Long Time Tabs (ver.1)

Artists:  A B C D E F G H I J K L M N O P Q R S T U V W X Y Z # 

Hurt A Long Time Tabs (ver.1)

Cantrell Jerry Tabs
Rating:
0/5 (0 votes)
Hurt A Long Time lessons Tabs too difficult? Try these video lessons and learn fast
                Tune down 1/2 a step.
Clean or Acoustic Guitar

This is my interpretation of the song. It is my favourite song off
the album and is a lot of fun to play.

Intro
|------------------------0-------|--------------------------0-----|
|------3--2--------------3-------|------3--2-----3h5p3------3-----|
|------------2-------2---2-------|------------2---------2---2-----|
|---------------2--------0-------|--------------------------0-----|
|---0--------------0-----0-------|---0----------------------0-----|
|--------------------------------|--------------------------------|

Verse                      
|---------------------0----0-0---|--------------------2-----2-2---|
|-----------2--3--2---2----2-2---|----------2--3--2---3-----3-3---|
|---------2-----------2----2-2---|--------2-----------2-----2-2---|
|-----0h2-------------0----0-0---|----0h2-------------0-----0-0---|
|--0-----------------------------|--0-----------------------------|
|--------------------------------|--------------------------------|


Chorus:
I didn't really try to figure this part out and I only tabbed what
I thought was the backing guitar. Its based around the A and D 
chord structures, like the first parts of the song. It shouldnt be
too hard to figure out. The chords are just interchanged.

Heavy Distortion
|----2-2-2-2-2-2-2-2-2-2----------------------2-2-2-2-2-2-2-------|
|----3-3-3-3-3-3-3-3-3-3----2---2--2-2-3-2----3-3-3-3-3-3-3-------|
|----2-2-2-2-2-2-2-2-2-2----2---2--2-2-2-2----2-2-2-2-2-2-2-------|
|----0-0-0-0-0-0-0-0-0-0----2---2--2-2-2-2----0-0-0-0-0-0-0-------|
|---------------------------0---0--0-0-0-0------------------------|
|-----------------------------------------------------------------|

Lyrics:

Verse 1:
His hands are clenched
His knuckles white
He got a gun
And gave up the fight
When I found out
I couldn't even cry
Well I am now
And I'm tryin' to figure out why

Chorus:                                          
I'll save it for you
You save me from me
And the hole in my head I can see
Tell her I love her
Tell the kids that I loved them
Oh, it's a bad dream
I've got only time
Yeah, it's a bad dream
I've got only time
You know it's a bad dream
I've got only time
I wish it was a bad dream
I wish it was a bad dream
'Cause it's gonna hurt a long time, yeah
           
Verse 2:                               
He lies awake
With saddened eyes
Sleeping babies
Keeping him alive

Chorus x1

Or get on with dying
            
Submit corrections

comments powered by Disqus
↑ Back to top | Cantrell Jerry Tabs for Hurt A Long Time. Lyrics for acoustic guitar and electric guitar. Tablatures and chords are parodies/interpretations of the original songs. You may use it for private study, scholarship, research or language learning purposes only