» » »

Anger Rising Bass tabs (ver.1)

Artists:  A B C D E F G H I J K L M N O P Q R S T U V W X Y Z # 

Anger Rising Bass tabs (ver.1)

Cantrell Jerry
Rating:
0/5 (0 votes)

Hard to play? Try these video lessons and learn fast.
                5/11/02

Ok, most of the stuff I've seen on this site is wrong or incomplete, 

Tune each string down a half step, and it's real easy to play.

There are basically three parts...

Intro Part:

F#|--------------------------------------------------------------------
C#|--------------------------------------------------------------------
G#|--2--0-----3--------------------------------------------------------
Eb|--------1-----3--2--0--0--0--0--0--0--0--0--0--0--0--0--0--0--0--0--

Verse Part:

F#|--------------------------------------------------
C#|-----------0--------------------------------0-----
G#|--0--2--2--------------------------------0-----0--
Eb|--------------2--2--2--2--1--1--1--1--0-----------

Chorus Part:

F#|-----------------------------------------------------------
C#|--------0-----------------------------0--------------------
G#|--0--2--------------0--2--2--0--2--0--------------0--2--2--
Eb|-----------0--1--2-----------------------0--1--2-----------

Here's the arrangemnet:

Intro x1
Intro x1 (singing)
Verse x4
Verse x8 (words)
Chorus x2 (words)
verse x4
Verse x8 (words)
Chorus x4 (words)
Intro x1 (singing)
verse x4 (guitar solo)
Chorus x2 (guitar solo)
Verse x4 (words)
Chorus x4 (words)
Intro x3 (singing)
Intro x1 (only guitar and singing)
Intro x1 (only singing)

Now, ROCK!!!
            
Hard to play? Try these video lessons and learn fast. | Correct




comments powered by Disqus
↑ Back to top | Tablatures and chords are parodies/interpretations of the original songs. You may use it for private study, scholarship, research or language learning purposes only