» » »

Cant Hang, Uptown Bass tabs (ver.1)

Artists:  A B C D E F G H I J K L M N O P Q R S T U V W X Y Z # 

Uptown Bass tabs (ver.1)

Cant Hang Tabs
Rating:
0/5 (0 votes)
Uptown lessons Tabs too difficult? Try these video lessons and learn fast
                -------------------------------------------------------------------------------
-------------------------------------------------------------------------------


Tuning: Standard

                                                                 Intro Riff
G|------------------------------------------------------------------------------------------------|
D|------------------------------------------------------------------------------------------------|
A|2--2--2-2--3----5---2---3-----5--2-2-2-2-2-2-2-2-3-3-3-3-3-3-3-3-----------------5-5-5-5-5-5-5-5|
E|-------------4-------------3-------------------------------------3-3-3-3-3-3-3-3----------------|

                                                                 Verse- 4x
G|----------------------5----5-----------------------------------------------|
D|--------------------5----5-----------5----5--------------------------------|
A|-2-2---2-----2--3-3----------------5----5------5-5-5-5----3----------------|
E|-----3-----3-------------------3-3-----------------------------------------|

                                                                 Chorus 1- 2x
G|---------------------------------------------------------------------------|
D|---------------------------------------------------------------------------|
A|-3-3-3-3-3-3-3-3-5-5-5-5-5-5-5-5-7-7-7-7-7-7-7-7-7-7-7-7-7-7-7-7-----------|
E|---------------------------------------------------------------------------|

                                                                 Verse- 4x
G|----------------------5----5-----------------------------------------------|
D|--------------------5----5-----------5----5--------------------------------|
A|-2-2---2-----2--3-3----------------5----5------5-5-5-5----3----------------|
E|-----3-----3-------------------3-3-----------------------------------------|

                                                                 Chorus 2- 2x
G|---------------------------------------------------------------------------|
D|------------------------------------------------/18-18-18-18-18-18-18-18---|
A|-3-3-3-3-3-3-3-3-5-5-5-5-5-5-5-5-7-7-7-7-7-7-7-7---------------------------|
E|---------------------------------------------------------------------------|

                                                                 Bridge- 2x
G|---------------------------------------------------------------------------|
D|---------------------------------------------------------------------------|
A|-2---2--2---3---3--3--------------5---5--5---------------------------------|
E|----------------------3---3--3---------------------------------------------|

                                                                 Chorus 3- 2x
G|---------------------------------------------------------------------------|
D|------------------------------------------------/18-18-18-18-18-18-18-18---|
A|-3-3-3-3-3-3-3-3-5-5-5-5-5-5-5-5-7-7-7-7-7-7-7-7---------------------------|
E|---------------------------------------------------------------------------|
                                                                 Intro Riff
G|---------------------------------------------------------------------------|
D|---------------------------------------------------------------------------|
A|-2---3-------5---2---3-------5---------------------------------------------|
E|---------3---------------3-------------------------------------------------|
                                                                 4x
G|---------------------------------------------------------------------------|
D|---------------------------------------------------------------------------|
A|-2---2--2---3---3--3--------------5---5--5---------------------------------|
E|----------------------3---3--3---------------------------------------------|

                                                                 Verse- 2x
G|----------------------5----5-----------------------------------------------|
D|--------------------5----5-----------5----5--------------------------------|
A|-2-2---2-----2--3-3----------------5----5------5-5-5-5----3----------------|
E|-----3-----3-------------------3-3-----------------------------------------|

                                                                 Chorus 4- 2x
G|---------------------------------------------------------------------------|
D|------------------------------------------------/18-18-18-18-18-18-18-18---|
A|-3-3-3-3-3-3-3-3-5-5-5-5-5-5-5-5-7-7-7-7-7-7-7-7---------------------------|
E|---------------------------------------------------------------------------|

G|---------------------------------------------------------------------------|
D|---------------------------------------------------------------------------|
A|-2-------------------------------------------------------------------------|
E|---------------------------------------------------------------------------|



| /  slide up
| \  slide down
| h  hammer-on
| p  pull-off
| ~  vibrato
| +  harmonic
| x  Mute note
===============================================================================
            

comments powered by Disqus
↑ Back to top | Cant Hang Bass for Uptown. Lyrics for acoustic guitar and electric guitar. Tablatures and chords are parodies/interpretations of the original songs. You may use it for private study, scholarship, research or language learning purposes only