» » »

Uptown Tabs (ver.1)

Artists:  A B C D E F G H I J K L M N O P Q R S T U V W X Y Z # 

Uptown Tabs (ver.1)

Cant Hang
Rating:
5/5 (1 vote)

Hard to play? Try these video lessons and learn fast.
                -------------------------------------------------------------------------------
                             Uptown – Can’t Hang
-------------------------------------------------------------------------------

Tuning: Standard

note: in case it was unclear, the first three chord changes of each verse are picked 
upstrokes. feedback would be appreciated! :)


                                                        Intro-5x
e|---------------------------------------2---2-2-----------------------------|
B|-7---7-7------8----8---8----3---3-3----3---3-3-----------------------------|
G|-7---7-7------9----9---9----4---4-4----2---2-2-----------------------------|
D|-9---9-9------10---10--10---5---5-5----0---0-0-----------------------------|
A|-9---9-9------10---10--10---5---5-5----------------------------------------|
E|-7---7-7-7/8--8----8---8----3---3-3----------------------------------------|

   V  V  V  V  V   V   V   V   V  V  V  V               Verse- 4x
e|-------------------------------------------2-2-2-2-2-----------------------|
B|-7--7--7--7--8---8---8---8-----------------3-3-3-3-2-----------------------|
G|-7--7--7--7--9---9---9---9---4--4--4--4----2-2-2-2-2--5--------------------|
D|-9--9--9--9--10--10--10--10--5--5--5--5----0-0-0-0-0--5--------------------|
A|-9--9--9--9--10--10--10--10--5--5--5--5---------------3--------------------|
E|-7--7--7--7--8---8---8---8---3--3--3--3------------------------------------|

                                                        Chorus 1- 2x
e|---------------------------------------------------------------------------|
B|---------------------------------------------------------------------------|
G|-5-5-5-5-5-5-5-5-7-7-7-7-7-7-7-7-9-9-9-9-9-9-9-9-9-9-9-9-9-9-9-9-----------|
D|-5-5-5-5-5-5-5-5-7-7-7-7-7-7-7-7-9-9-9-9-9-9-9-9-9-9-9-9-9-9-9-9-----------|
A|-3-3-3-3-3-3-3-3-5-5-5-5-5-5-5-5-7-7-7-7-7-7-7-7-7-7-7-7-7-7-7-7-----------|
E|---------------------------------------------------------------------------|

   V  V  V  V  V   V   V   V   V  V  V  V               Verse- 4x
e|-------------------------------------------2-2-2-2-2-----------------------|
B|-7--7--7--7--8---8---8---8-----------------3-3-3-3-2-----------------------|
G|-7--7--7--7--9---9---9---9---4--4--4--4----2-2-2-2-2--5--------------------|
D|-9--9--9--9--10--10--10--10--5--5--5--5----0-0-0-0-0--5--------------------|
A|-9--9--9--9--10--10--10--10--5--5--5--5---------------3--------------------|
E|-7--7--7--7--8---8---8---8---3--3--3--3------------------------------------|

                                                      Chorus 2 (part one)- 1x
e|-------------------------------------------------------------------------------|
B|-------------------------------------------------------------------------------|
G|-5-5-5-5-5-5-5-5-7-7-7-7-7-7-7-7-9-9-9-9-11-11-11-11-13-13-13-13-13-13-13-13---|
D|-5-5-5-5-5-5-5-5-7-7-7-7-7-7-7-7-----------------------------------------------|
A|-3-3-3-3-3-3-3-3-5-5-5-5-5-5-5-5-7-7-7-7-9--9--9--9--11-11-11-11-11-11-11-11---|
E|-------------------------------------------------------------------------------|

                                                      Chorus 2 (part two)- 1x
e|-------------------------------------------------------------------------------|
B|-------------------------------------------------------------------------------|
G|-5-5-5-5-5-5-5-5-7-7-7-7-7-7-7-7-9-9-9-9-11-11-11-11-13-13-13-13-14-14-14-14---|
D|-5-5-5-5-5-5-5-5-7-7-7-7-7-7-7-7-----------------------------------------------|
A|-3-3-3-3-3-3-3-3-5-5-5-5-5-5-5-5-7-7-7-7-9--9--9--9--11-11-11-11-12-12-12-12---|
E|-------------------------------------------------------------------------------|

                                                        Bridge- 2x
e|-------------------------------------------------------------2-2-2-2-2-2---|
B|-7---7-7--7---7-7--8----8--8---8----8--8---------------------3-3-3-3-3-3---|
G|-7---7-7--7---7-7--9----9--9---9----9--9---4---4-4--4---4-4--2-2-2-2-2-2--5|
D|-9---9-9--9---9-9--10---10-10--10---10-10--5---5-5--5---5-5--0-0-0-0-0-0--5|
A|-9---9-9--9---9-9--10---10-10--10---10-10--5---5-5--5---5-5---------------3|
E|-7---7-7--7---7-7--8----8--8---8----8--8---3---3-3--3---3-3----------------|

                                                        Chorus 3- 2x
e|-------------------------------------------------------------------------------|
B|-------------------------------------------------------------------------------|
G|-5-5-5-5-5-5-5-5-7-7-7-7-7-7-7-7-9-9-9-9-11-11-11-11-13-13-13-13-14-14-14-14---|
D|-5-5-5-5-5-5-5-5-7-7-7-7-7-7-7-7-----------------------------------------------|
A|-3-3-3-3-3-3-3-3-5-5-5-5-5-5-5-5-7-7-7-7-9--9--9--9--11-11-11-11-12-12-12-12---|
E|-------------------------------------------------------------------------------|

                                                        Intro Riff- 6x
e|-------------------------------------2---2--2------------------------------|
B|-7---7--9---8----8---8---------------3---3--3------------------------------|
G|-7---7--7---9----9---9----4---4--4---2---2--2------------------------------|
D|-9---9--9---10---10--10---5---5--5---0---0--0------------------------------|
A|-9---9--9---10---10--10---5---5--5-----------------------------------------|
E|-7---7--7---8----8---8----3---3--3-----------------------------------------|

   V  V  V  V  V   V   V   V   V  V  V  V               Verse- 2x

e|-------------------------------------------2-2-2-2-2-----------------------|
B|-7--7--7--7--8---8---8---8-----------------3-3-3-3-2-----------------------|
G|-7--7--7--7--9---9---9---9---4--4--4--4----2-2-2-2-2--5--------------------|
D|-9--9--9--9--10--10--10--10--5--5--5--5----0-0-0-0-0--5--------------------|
A|-9--9--9--9--10--10--10--10--5--5--5--5---------------3--------------------|
E|-7--7--7--7--8---8---8---8---3--3--3--3------------------------------------|

************************************

| /   slide up
| \   slide down
| h   hammer-on
| p   pull-off
| ~   vibrato
| +   harmonic
| x   Mute note
| b   Bend
| pb  Pre-bend
| br  Bend release
| pbr Pre-bend release
| brb Bend release bend
| V   Upstroke

************************************
            
Hard to play? Try these video lessons and learn fast. | Correct




comments powered by Disqus
↑ Back to top | Tablatures and chords are parodies/interpretations of the original songs. You may use it for private study, scholarship, research or language learning purposes only