» » »

Cant Hang, Dont Exist Tabs (ver.1)

Artists:  A B C D E F G H I J K L M N O P Q R S T U V W X Y Z # 

Dont Exist Tabs (ver.1)

Cant Hang Tabs
 Rating:
4/5 (4 votes)
Dont Exist lessons Tabs too difficult? Try these video lessons and learn fast
1
                -------------------------------------------------------------------------------
     DON'T EXIST - Can't Hang
-------------------------------------------------------------------------------

If you're in the Baltimore area and interested in guitar lessons check out 
baltimoreguitarlessons.com

Tuning: Standard


Intro Riff:

e|---------------------------------------------------------------------------|
B|---------------------------------------------------------------------------|
G|---------------------------------------------------------------------------|
D|---------------------------------------------------------------------------|
A|--2---------2-2-2---5-3-3-33-5--5-5-5--4-4-4-4-----------------------------|
E|--0-0-2-3-5-------3-------------3-3-3--2-2-2-2-----------------------------|

e|---------------------------------------------------------------------------|
B|---------------------------------------------------------------------------|
G|---------------------------------------------------------------------------|
D|-------------------------------5-5-5-4-------------------------------------|
A|--2---------2-2-2---5-3-3-33-5---------5-----------------------------------|
E|--0-0-2-3-5-------3--------------------------------------------------------|

e|--------7-7-7----------------8-8-8---------------7-7-7---------------------|
B|--8-8-8--------8-8--10-10-10-------10-10---8-8-8-------8-8-7h8p7h8---------|
G|---------------------------------------------------------------------------|
D|---------------------------------------------------------------------------|
A|---------------------------------------------------------------------------|
E|---------------------------------------------------------------------------|

e|--------7-7-7----------------8-8-8-----------------15-15-15-------1919191919------|
B|--8-8-8--------8-8--10-10-10-------10-10--17-17-17----------17-17-----------------|
G|----------------------------------------------------------------------------------|
D|----------------------------------------------------------------------------------|
A|----------------------------------------------------------------------------------|
E|----------------------------------------------------------------------------------|

Verse

--Emin 2x---Bmin 2x--Emin 2x---Bmin 2x--Emin 2x---Bmin 2x---C 2x---Bmin 2x

e|--7---------7---------7--------7--------7------7-------8------7-----------------------|
B|--8---------7---------8--------7--------8------7-------8------7-----------------------|
G|--9---------7---------9--------7--------9------7-------9------7-----------------------|
D|--9---------9---------9--------9--------9------9-------10-----9-----------------------|
A|--7---------9---------7--------9--------7------9-------10-----9-----------------------|
E|------------7------------------7---------------7-------8------7-----------------------|

prechorus- arpeggios in Amin Bmin C

e|-----------5----------------7--------------------8----------------------------------------|
B|-------5----5-----5-----7----7-----7--------8-----8--------8------------------------------|
G|------5-5----5---5-----7-7----7---7--------9-9-----9------9-------------------------------|
D|-----7---7----7-7-----9---9----9-9-------10---10----10--10--------------------------------|
A|----7----------7-----9----------9------10-------------10------99999999--1212121212121212--|
E|---5----------------7-----------------8-----------------------77777777--1010101010101010--|

Chorus is intro riff

Outro lick

e|-15----19----15----15----14--15-----14----17----14----15----14-------------|
B|---17------17--17------17--17--17-----15------15--15------15--15-14-15-----|
G|-----16--16------16--16-----------------14--14------14--14-----------------|
D|---------------------------------------------------------------------------|
A|---------------------------------------------------------------------------|
E|---------------------------------------------------------------------------|


************************************

| /   slide up
| \   slide down
| h   hammer-on
| p   pull-off
| ~   vibrato
| +   harmonic
| x   Mute note
| b   Bend
| pb  Pre-bend
| br  Bend release
| pbr Pre-bend release
| brb Bend release bend

************************************
            
Submit corrections

comments powered by Disqus
↑ Back to top | Cant Hang Tabs for Dont Exist. Lyrics for acoustic guitar and electric guitar. 1 Tablatures and chords are parodies/interpretations of the original songs. You may use it for private study, scholarship, research or language learning purposes only