» » »

Cant Hang, 95 Tabs (ver.1)

Artists:  A B C D E F G H I J K L M N O P Q R S T U V W X Y Z # 

95 Tabs (ver.1)

Cant Hang Tabs
Rating:
5/5 (1 vote)
95 lessons Tabs too difficult? Try these video lessons and learn fast
                -------------------------------------------------------------------------------
                             95 -  Can't Hang
-------------------------------------------------------------------------------
If you're in the Baltimore area and want guitar lessons check out baltimoreguitarlessons.com

Tuning: standard

Intro- D to Dmin, then back and forth from A to Bmin 4x each then 2 hits on Bmin


---D-----Dmin------A-------Bmin

e|-5-----5----------5--------7-----------------------------------------------------|
B|-7-----6----------5--------7-----------------------------------------------------|
G|-7-----7----------6--------7-----------------------------------------------------|
D|-7-----7----------7--------9-----------------------------------------------------|
A|-5-----5----------7--------9-----------------------------------------------------|
E|------------------5--------7-----------------------------------------------------|

Verse A to Bmin 8x each

e|---5-------7-----------------------------------------------------------------|
B|---5-------7-----------------------------------------------------------------|
G|---6-------7-----------------------------------------------------------------|
D|---7-------9-----------------------------------------------------------------|
A|---7-------9-----------------------------------------------------------------|
E|---5-------7-----------------------------------------------------------------|

Prechorus

---D 4x--A 4x---D 4x--F#min 4x------D 4x---C# min 4x---Bmin 4x-------D-----Dmin

e|--5----5------5-----2------------5-------4----------2-----------5------5---------|
B|--7----5------7-----2------------7-------5----------3-----------7------6---------|
G|--7----6------7-----2------------7-------6----------4-----------7------7---------|
D|--7----7------7-----4------------7-------6----------4-----------7------7---------|
A|--5----7------5-----4------------5-------4----------2-----------5------5---------|
E|-------5------------2------------------------------------------------------------|

Chorus

-----A 2x------F#min 2x------Bmin 2x----E  2x

e|----5---------2------------2---------7-------------------------------------------|
B|----5---------2------------3---------9-------------------------------------------|
G|----6---------2------------4---------9-------------------------------------------|
D|----7---------4------------4---------9-------------------------------------------|
A|----7---------4------------2---------7-------------------------------------------|
E|----5---------2------------------------------------------------------------------|

Solo

e|----------------------------5------0------0----------0--0---0---------12-------17----------|
B|-5---3--2-----------2-2 h 3--------5-5/7--7-7/9--9/10-10 / 5  \ 14---12/14-----14/17--17/--|
G|------------2-2-2 h 4----------2-----------------------------------------------------------|
D|-------------------------------------------------------------------------------------------|
A|-------------------------------------------------------------------------------------------|
E|-------------------------------------------------------------------------------------------|

e|-5--3---2-----------------------------------------5----------------------------|
B|-------------5---3---2--------5-----------5------------------------------------|
G|--2---2---2----2---2---2--4/6---6 p 4 /2--br4--2--2----------------------------|
D|----------------------------------------------4--------------------------------|
A|-------------------------------------------------------------------------------|
E|-------------------------------------------------------------------------------|

************************************

| /   slide up
| \   slide down
| h   hammer-on
| p   pull-off
| ~   vibrato
| +   harmonic
| x   Mute note
| b   Bend
| pb  Pre-bend
| br  Bend release
| pbr Pre-bend release
| brb Bend release bend

************************************
            

comments powered by Disqus
↑ Back to top | Cant Hang Tabs for 95. Lyrics for acoustic guitar and electric guitar. Tablatures and chords are parodies/interpretations of the original songs. You may use it for private study, scholarship, research or language learning purposes only