» » »

Canterbury, Take Me Out Of The Wall Bass tabs (ver.1)

Artists:  A B C D E F G H I J K L M N O P Q R S T U V W X Y Z # 

Take Me Out Of The Wall Bass tabs (ver.1)

Canterbury Tabs
 Rating:
4/5 (4 votes)
Take Me Out Of The Wall lessons Tabs too difficult? Try these video lessons and learn fast
1
                -------------------------------------------------------------------------------
-------------------------------------------------------------------------------


Tuning:Standard EADG

Intro
G|---------------------------------------------------------------------------|
D|---------------------------------------------------------------------------|
A|-2-2-4-4-5-5-------2-2-4-4-5-5--0-1-----2--2--2----------2--2--2-----------|
E|-------------2121--------------2----------------202--------------202-------|

Verse
G|---------------------------------------------------------------------------|
D|---------------------------------------------------------------------------|
A|-2----0-0----0-------------------2----0-0----0-----------------------------|
E|----------------2----2-2----0-------------------2----2-2----0--------------|

G|---------------------------------------------------------------------------|
D|---------------------------------------------------------------------------|
A|-2----0-0----0-------------------2----0-0----0-----------------------------|
E|----------------2----2-2----0-------------------2----2---------------------|


Chorus
G|---------------------------------------------------------------------------|
D|---------------------------------------------------------------------------|
A|-2-2-2-2-0-0-0-0-7-7-7-7-8-7-5-7-2-2-2-2-0-0-0-0-7-7-7-7-8-7-5-7-----------|
E|---------------------------------------------------------------------------|

G|---------------------------------------------------------------------------|
D|---------------------------------------------------------------------------|
A|-2-2-4-4-5-5-------2-2-4-4-5-5--0-1-----2--2--2----------2--2--2-----------|
E|-------------2121--------------2----------------202--------------202-------|


Verse 2
G|-----4---2-----------4---2-----------4---2-----------4---2-----------------|
D|---4---4---4-2---------4-----------4---4---4-2---------4-------------------|
A|-2-------------5-2-5---------0-1-2-------------5-2-5---------0-1-----------|
E|---------------------------2-------------------------------2---------------|


Chorus
G|---------------------------------------------------------------------------|
D|---------------------------------------------------------------------------|
A|-2-2-2-2-0-0-0-0-7-7-7-7-8-7-5-7-2-2-2-2-0-0-0-0-7-7-7-7-8-7-5-7-----------|  
E|---------------------------------------------------------------------------|  x2


Bridge
G|-----4-------2-----------------------4-------2-----------------------------|
D|---------------------6-------------------------------6---------------------|
A|-2-2---2-0-0---0-----------------2-2---2-0-0---0---------------5-----------|
E|-----------------4-4---4-3-3-3-0-----------------4-4---4-3-3-3-------------|

G|---------------------------------------------------------------------------|
D|---------------------------------------------------------------------------|
A|--------------------2-2--22-2-22-00-0--------------------2-2--22-2-22-00-0-|
E|-2-2--22-2-22-22-2--------------------2-2--22-2-22-22-2--------------------|  x2


Chorus
G|---------------------------------------------------------------------------|
D|---------------------------------------------------------------------------|
A|-2-2-2-2-0-0-0-0-7-7-7-7-8-7-5-7-2-2-2-2-0-0-0-0-7-7-7-7-8-7-5-7-----------|
E|---------------------------------------------------------------------------|


Outro
G|-----4-------2-----------------------4-------2-----------------------------|
D|---------------------6-------------------------------6---------------------|
A|-2-2---2-0-0---0-----------------2-2---2-0-0---0---------------5-----------|
E|-----------------4-4---4-3-3-3-0-----------------4-4---4-3-3-3-------------|

G|---------------------------------------------------------------------------|
D|---------------------------------------------------------------------------|
A|--------------------2-2--22-2-22-00-0--------------------------------------|
E|-2-2--22-2-22-22-2---------------------------------------------------------|





| /  slide up
| \  slide down
| h  hammer-on
| p  pull-off
| ~  vibrato
| +  harmonic
| x  Mute note
===============================================================================
            
Submit corrections

comments powered by Disqus
↑ Back to top | Canterbury Bass for Take Me Out Of The Wall. Lyrics for acoustic guitar and electric guitar. 1 Tablatures and chords are parodies/interpretations of the original songs. You may use it for private study, scholarship, research or language learning purposes only