» » »

Canterbury, Lost In The Basement Tabs (ver.1)

Artists:  A B C D E F G H I J K L M N O P Q R S T U V W X Y Z # 

Lost In The Basement Tabs (ver.1)

Canterbury Tabs
 Rating:
4/5 (5 votes)
Lost In The Basement lessons Tabs too difficult? Try these video lessons and learn fast
1
                This is my first tab so i hope it is okay and you are able to play and of course that it 
like the real song.
This all i could figure out but I'm sure that most of you can probably figure out the rest.

Standard Tuning

intro

-------------------------------|
-------------------------------|
----------3-5-3-----0----------|
--------5-------5-3------------|
--3-3-3------------------------|
-------------------------------|


Verse

-------------------------------|
-------------------------------|
--5------5------8------10------|
--5-(x8)-5-(x8)-8-(x8)-10-(x8)-|  (x2)
--3------3------6------8-------|
-------------------------------|

Chorus

------------------------------------------|
------------------------------------------|
--5-----------------------8---------------|
--5-(x8)--7------/6-------8-(x8)-5--------|
--3-------7-(x4)-/6-(x4)--6------5-(x8)---|
----------5------/4--------------3--------|
            
Submit corrections

comments powered by Disqus
↑ Back to top | Canterbury Tabs for Lost In The Basement. Lyrics for acoustic guitar and electric guitar. 1 Tablatures and chords are parodies/interpretations of the original songs. You may use it for private study, scholarship, research or language learning purposes only