» » »

Canterbury, Gloria Tabs (ver.1)

Artists:  A B C D E F G H I J K L M N O P Q R S T U V W X Y Z # 

Gloria Tabs (ver.1)

Canterbury Tabs
 Rating:
4.5/5 (8 votes)
Gloria lessons Tabs too difficult? Try these video lessons and learn fast
1
                
Intro (x2):

e |-------------------------------------|
b |-------------------------------------|
g |-2-2-2-4-4-4-7-7-7-7-7-7-7-7-7-------|
d |-------------------------------------|
a |-------------------------------------|
e |-------------------------------------|

e |---------------------------------------------|
b |---------------------------------------------|
g |-0-2-2-2-4-4-4-12-12-12-11-11-11-11-11-11-11-|
d |---------------------------------------------|
a |---------------------------------------------|
e |---------------------------------------------|

Verse 1 (x2):

e |-------------------------------------|
b |-------------------------------------|
g |-2-2-2-4-4-4-7-7-7-7-7-7-7-7-7-------|
d |-------------------------------------|
a |-------------------------------------|
e |-------------------------------------|

e |---------------------------------------------|
b |---------------------------------------------|
g |-0-2-2-2-4-4-4-12-12-12-11-11-11-11-11-11-11-|
d |---------------------------------------------|
a |---------------------------------------------|
e |---------------------------------------------|

e |-------------------------------------|
b |-------------------------------------|
g |-2-2-2-4-4-4-7-7-7-7-7-7-7-7-7-7-0---|
d |-------------------------------------|
a |-------------------------------------|
e |-------------------------------------|

Pre-Chorus:

e |----------------------|
b |----------------------|
g |-0-(x12)-12-12--------|
d |---------12-10--------|
a |----------------------|
e |----------------------|

Chorus:

e |-------------------------------------|
b |---------------------12-15--12-15----|
g |----------------------------------12-|
d |-5-5-9-10--5-------------------------|
a |-5-5-9-10--5-------------------------|
e |-3-2-7-8---3-------------------------|

Repeat Verse 1, Pre-Chorus and Chorus

Interlude:

e |----------------------|
b |----------------------|
g |----------------------|
d |----------------------|
a |----------------------|
e |-7-(x12)--10-10-10--3-(x12)--5-5-5--0-(x12)--5-5-5--3--|
 
    PM all notes.......

"If you believe...":

e |----------------------|
b |----------------------|
g |----------------------|
d |-9-10-----------------|
a |-9-10-----------------|
e |-7-8------------------|

Repeat Chorus
            
Submit corrections

comments powered by Disqus
↑ Back to top | Canterbury Tabs for Gloria. Lyrics for acoustic guitar and electric guitar. 1 Tablatures and chords are parodies/interpretations of the original songs. You may use it for private study, scholarship, research or language learning purposes only