» » »

Friends Were More Like A Gang Tabs (ver.1)

Artists:  A B C D E F G H I J K L M N O P Q R S T U V W X Y Z # 

Friends Were More Like A Gang Tabs (ver.1)

Canterbury
Rating:
4/5 (1 vote)

Hard to play? Try these video lessons and learn fast.
                (Intro)
Great Band. Great Song. One day i shall do the whole song, I hope this can give 
someone a pointer to work out the rest ... maybe?


e|--------------------------------------------------------------------------|
B|--------------------------------------------------------------------------|
G|--------------------------------------6-6-6-6-5-5-5-5---------------------|
D|-4h7-4-4-4-4h7-4-4-4--4-4-4-4-4-4-7-7----------------4h7-4-4-4-4h7-4-4-4--|
A|--------------------------------------------------------------------------|
E|--------------------------------------------------------------------------|

e|-------------------------------------------------------------------|
B|-------------------------------------------------------------------|
G|------------------6-6-6-6-5-5-5-5----------------------------------|
D|--4-4-4-4-4-4-7-7----------------4-4-4-4-4-4-4-4-2-2-2-2-2-2-2-2---|
A|-------------------------------------------------------------------|
E|-------------------------------------------------------------------|

e|-------------------------------------------------------------------|
B|-------------------------------------------------------------------|
G|------------------6-6-6-6-5-5-5-5-----------------5-6--------------|
D|--4-4-4-4-4-4-7-7-----------------4-4-4-4-4-4-7h8------------------|
A|-------------------------------------------------------------------|
E|-------------------------------------------------------------------|


e|-----------------------------------------------------------|
B|-----------------------------------------------------------|
G|------6-----6-----6---7-6------3-----3-----3---4-3---------|
D|--4-7---4-7---4-7---4------1-4---1-4---1-4---1-------------|  X2
A|-----------------------------------------------------------|
E|-----------------------------------------------------------|
            
Hard to play? Try these video lessons and learn fast. | Correct




comments powered by Disqus
↑ Back to top | Tablatures and chords are parodies/interpretations of the original songs. You may use it for private study, scholarship, research or language learning purposes only