» » »

Canterbury, Diver Bass tabs (ver.1)

Artists:  A B C D E F G H I J K L M N O P Q R S T U V W X Y Z # 

Diver Bass tabs (ver.1)

Canterbury Tabs
Rating:
5/5 (2 votes)
Diver lessons Tabs too difficult? Try these video lessons and learn fast
                

Tuning: Standard

Please listen to the song because it's an awesome song, and also to know when to play 
riff. :)

Intro/Verse:

G|-----------------|-----------------|-----------------|-----------------|
D|-----------------|-----------------|-----------------|-----------------|
A|-4-4-4-4-4-4-4-2-|-2-2-2-2-2-2-2-2-|-4-4-4-4-4-4-4-2-|-2-2-2-2-2-2-2-2-|
E|-----------------|-----------------|-----------------|-----------------|

G|-----------------|-----------------|-----------------|-----------------|
D|-----------------|-----------------|-----------------|-----------------|
A|-7-7-7-7-7-7-7-0-|-0-0-0-0-0-0-0-0-|-7-7-7-7-7-7-7-0-|-0-0-0-0-0-0-0-0-|
E|-----------------|-----------------|-----------------|-----------------|

Chorus:

G|-----------------|-----------------|---9--------9------|--------9119---------|
D|-----------------|-----------------|-----9-11-----9-11-|---9-11------11-9----|
A|-4-/-7-99-6-6-6--|-4-/-7-99-6-6-6--|-9--------9--------|-7----------------11-| x2
E|-----------------|-----------------|-------------------|---------------------|

after 1st chorus:

G|-----------------|-----------------|-----------------|-----------------|
D|-----------------|-----------------|-----------------|-----------------|
A|-4-------------2-|-----------0-----|-4-------------4-|-7~--------------|
E|-----------------|-----------------|-----------------|-----------------|

It's getting crowded around here..:

G|-----------------|-----------------|-----------------|-----------------|
D|-----------------|-----------------|-----------------|-----------------|
A|-4-4-4-4-4-4-4-6-|-6-6-6-6-6-6-6-6-|-----------------|-----------------| x2
E|-----------------|-----------------|-4---4---4-4-4-5-|-5-5-5-5-5-5-5-5-|

Bridge:

G|-----------------|-----------------|-----------------|-----------------|
D|-----------------|-----------------|-----------------|-----------------|
A|-4-4-4-4-4-4-4-4-|-4-4-4-4-4-2-2-2-|-0-0-0-0-0-0-0-0-|-0-0-0-0-0-2-2-2-| x2
E|-----------------|-----------------|-----------------|-----------------|

G|-----------------|-----------------|-----------------|-----------------|
D|-----------------|-----------------|-----------------|-----------------|
A|-4-4-4-4-4-4-4-4-|-2-2-2-2-2-------|-2-2-2-2-2-2-2-0-|-0-0-0-0-0-0-0-0-|
E|-----------------|-----------------|-----------------|-----------------|

G|-----------------|-----------------|-----------------|-----------------|
D|-----------------|-----------------|-----------------|-----------------|
A|-4-4-4-4-4-4-4-4-|-4-4-4-4-4-2-2-2-|-0-0-0-0-0-0-0-0-|-0-0-0-0-0-2-2-2-|
E|-----------------|-----------------|-----------------|-----------------|


G|-----------------|-----------------|-----------------|-----------------|
D|-----------------|-----------------|-----------------|-----------------|
A|-7-7-7-7-7-7-7-7-|-7-7-7-7-7-7-7-7-|-7-7-7-7-7-7-7-7-|-2-2-2-2-2-2-2-2-|
E|-----------------|-----------------|-----------------|-----------------|


/   slide up
\   slide down
h   hammer-on
p   pull-off
~   vibrato/let ring
< >  harmonic
x   Mute note
b   bend
r   release
            

comments powered by Disqus
↑ Back to top | Canterbury Bass for Diver. Lyrics for acoustic guitar and electric guitar. Tablatures and chords are parodies/interpretations of the original songs. You may use it for private study, scholarship, research or language learning purposes only