» » »

Canterbury, Calm Down Bass tabs (ver.1)

Artists:  A B C D E F G H I J K L M N O P Q R S T U V W X Y Z # 

Calm Down Bass tabs (ver.1)

Canterbury Tabs
 Rating:
4/5 (4 votes)
Calm Down lessons Tabs too difficult? Try these video lessons and learn fast
1
                This is the first real tab I made up by myself, I only learned the main riff to 
this which is played for most of the song .If I learn the rest of it I’ll post it up.  

             Calm Down
          
G|------55-----55-----------------------------------------| 
D|------------------------66-------55---------------------|
A|-3-33---4--33-------------------------------------------|	
E|----------------3-4--44---4-3-33----3-------------------|

            Ambulance

This is the main riff.
G|--------------------------------------------------------| 
D|--------------------------------------------------------|
A|-22-------------------22--------------------------------|
E|----33-2--22-22-2---------22-3--33-33-3-----------------|

This is the bit before the chorus
G|-----4--------------------------------------------------| 
D|------5-4---------------4-5-4---------------------------|
A|-2-------5-4—X2---0-4-5-------5-555-444-----------------|
E|--------------------------------------------------------|
            
Submit corrections

comments powered by Disqus
↑ Back to top | Canterbury Bass for Calm Down. Lyrics for acoustic guitar and electric guitar. 1 Tablatures and chords are parodies/interpretations of the original songs. You may use it for private study, scholarship, research or language learning purposes only