>
 >
Calm Down

Calm Down Bass Tabs

Canterbury - Calm Down chords, tabs, tablatures, lyrics

Guitar lessons | Add/correct | Request | Top 50 tabs Artists:  A B C D E F G H I J K L M N O P Q R S T U V W X Y Z 0-9

Calm Down Bass Tabs – Canterbury

CD, Sheet music, Poster

Do you like Calm Down? Share with your friends now
Bass Tabs
This is the first real tab I made up by myself, I only learned the main riff to 
this which is played for most of the song .If I learn the rest of it Ill post it up.  

             Calm Down
          
G|------55-----55-----------------------------------------| 
D|------------------------66-------55---------------------|
A|-3-33---4--33-------------------------------------------|	
E|----------------3-4--44---4-3-33----3-------------------|

            Ambulance

This is the main riff.
G|--------------------------------------------------------| 
D|--------------------------------------------------------|
A|-22-------------------22--------------------------------|
E|----33-2--22-22-2---------22-3--33-33-3-----------------|

This is the bit before the chorus
G|-----4--------------------------------------------------| 
D|------5-4---------------4-5-4---------------------------|
A|-2-------5-4X2---0-4-5-------5-555-444-----------------|
E|--------------------------------------------------------|





Comments


Popular Canterbury tabs & chords
11 12 Bass Tabs
Diver Bass Tabs
Gloria Bass Tabs
Take Me Out Of The Wall Bass Tabs
Gloria 1 Chords
Friends Were More Like A Gang Intro Tabs
Gloria Tabs
Lost In The Basement Tabs
Gloria Ukulele
Hospital Ukulele


Song lyrics



↑ Back to top | Tablatures and chords are parodies/interpretations of the original songs. You may use it for private study, scholarship, research or language learning purposes only
© 2014 AZChords.com Contact us | Privacy policy | DMCA | Add/correct tabs | Request tabs | Top 50 tabs