» » »

Canterbury, 11 12 Bass tabs (ver.1)

Artists:  A B C D E F G H I J K L M N O P Q R S T U V W X Y Z # 

11 12 Bass tabs (ver.1)

Canterbury Tabs
 Rating:
4.2/5 (5 votes)
11 12 lessons Tabs too difficult? Try these video lessons and learn fast
1
                -------------------------------------------------------------------------------
			     11,12 - Canterbury
-------------------------------------------------------------------------------


Tuning: EADG

Verse:

G|---------------------------------------------------------------------------|
D|---------------------------------------------------------------------------|
A|---------------------------------------------------------------------------|
E|-12/--3--33--33--333--5-55--55-555-----------------------------------------|

G|----9--------9---------9--------9------|
D|------7-9------7-9-------7-9------7-9--| x2
A|--7--------7---------7--------7--------|
E|---------------------------------------|

G|---------------------------------------------------------------------------|
D|---------------------------------------------------------------------------|
A|---------------------------------------------------------------------------|
E|--3--33--33--333--5--55--55--55--7--3--33--33--333--5--55--55--55555-------|

Chorus:

G|---------------------------------------------------------------------------|  |
D|---------------------------------------------------------------------------|  |
A|---7--7--7--7----7--7--7--7------------------------------------------------|  | 
E|--x--x--x--x----x--x--x--x-----77--x7--x7--x7--77--x7--x7--x7--------------|   \
                                                                                   x2
G|---------------------------------------------------------------------------|   /
D|---------------------------------------------------------------------------|  |
A|---------------------------------------------------------------------------|  |
E|--8-0--8-0--8-0--8-0----8-0--8-0--8-0--8-0---------------------------------|  |

End Chorus with:

G|---------------------------------------------------------------------------|
D|---------------------------------------------------------------------------|
A|---------------------------------------------------------------------------|
E|--7-0--7-0--7-0--7-0----5-0--5-0--3-0--2-0---------------------------------|

2nd Verse:

G|---------------------------------------------------------------------------|
D|---------------------------------------------------------------------------|
A|--------------------/7777--------------------------------------------------|
E|--0--0--0--0--0--0---------------------------------------------------------|

G|---------------------------------------------------------------------------|
D|---------------------------------------------------------------------------|
A|---------------------------------------------------------------------------|
E|--0--0--0--0--0--0---7777--------------------------------------------------|

G|---------------------------------------------------------------------------|
D|---------------------------------------------------------------------------|
A|---------------------------------------------------------------------------|
E|--3--33--33--333--5-55--55-555---------------------------------------------|

G|----9--------9---------9--------9------|
D|------7-9------7-9-------7-9------7-9--| x2
A|--7--------7---------7--------7--------|
E|---------------------------------------|

G|---------------------------------------------------------------------------|
D|---------------------------------------------------------------------------|
A|---------------------------------------------------------------------------|
E|--3--33--33--333--5--55--55--55--7--3--33--33--333--5-5-5-5-5-5-5----------|

2nd Chorus:

G|---------------------------------------------------------------------------|
D|---------------------------------------------------------------------------|
A|---7--7--7--7----7--7--7--7------------------------------------------------|
E|--x--x--x--x----x--x--x--x-----77--x7--x7--x7--77--x7--x7--x7--------------|

G|---------------------------------------------------------------------------|
D|---------------------------------------------------------------------------|
A|---------------------------------------------------------------------------|
E|--8-0--8-0--8-0--8-0----8-0--8-0--8-0--8-0---------------------------------|

Same as last time, end chorus with:
G|---------------------------------------------------------------------------|
D|---------------------------------------------------------------------------|
A|---------------------------------------------------------------------------|
E|--7-0--7-0--7-0--7-0----5-0--5-0--3-0--2-0---------------------------------|

Break/Interlude

G|---------------------------------------------------------------------------|
D|---------------------------------------------------------------------------| x2 (2nd time 
A|---------------------------------------------------------------------------|  varies timing)  
E|--0-0--10-10--5-5--3-3--2-222-22--0-0-0------------------------------------|

G|---------------------------------------------------------------------------|  |
D|---------------------------------------------------------------------------|  |
A|---------------------------------------------------------------------------|  |
E|--0-0-0-0-0-0-0-0-0-0--\10-10-10-10-10-10-10--11-11-11-11-11-11-11-11------|   \
                                                                                   x2  
G|---------------------------------------------------------------------------|   /
D|---------------------------------------------------------------------------|  |
A|---------------------------------------------------------------------------|  |
E|--7-7-7-7-7-7-7-7-7-7---5-5-5-5-5-3-3-3-3-3--------------------------------|  |

On the second strum the open E really hard and let the 4th note ring:

G|---------------------------------------------------------------------------|
D|---------------------------------------------------------------------------|
A|---------------------------------------------------------------------------|
E|-0--0--0--0~--000000-------------------------------------------------------|

2nd Chorus:

G|---------------------------------------------------------------------------|  |
D|---------------------------------------------------------------------------|  |
A|---------------------------------------------------------------------------|  |
E|--0-0-0-0-0-0-0-0-0-0---77--x7--x7--x7--77--x7--x7--x7---------------------|   \
                                                                                   x2
G|---------------------------------------------------------------------------|   /
D|---------------------------------------------------------------------------|  |
A|---------------------------------------------------------------------------|  |
E|--8-0--8-0--8-0--8-0----8-0--8-0--8-0--8-0---------------------------------|  |


Finish with:
G|---------------------------------------------------------------------------|
D|---------------------------------------------------------------------------|
A|---------------------------------------------------------------------------|
E|--7-0--7-0--7-0--7-0----5-0--5-0--3-0--2-0---0~----------------------------|


| /  slide up
| \  slide down
| h  hammer-on
| p  pull-off
| ~  vibrato
| +  harmonic
| x  Mute note
===============================================================================
            
Submit corrections

comments powered by Disqus
↑ Back to top | Canterbury Bass for 11 12. Lyrics for acoustic guitar and electric guitar. 1 Tablatures and chords are parodies/interpretations of the original songs. You may use it for private study, scholarship, research or language learning purposes only