» » »

Spine Splitter Bass tabs (ver.1)

Artists:  A B C D E F G H I J K L M N O P Q R S T U V W X Y Z # 

Spine Splitter Bass tabs (ver.1)

Cannibal Corpse
Rating:
0/5 (0 votes)

Hard to play? Try these video lessons and learn fast.
                "Cannibal Corpse - The Spine Splitter
Bloodthirst

tuning Bb-Eb-Ab-Db-Gb

Fig. 1
|---------------|
|---------------|
|---------------|
|---------------|
|2-0-3-0-6-0-5-0|

Fig. 2
|---------------------------------------------------------------|
|---------------------------------------------------------------|
|---------------------------------------------------------------|
|----------------2-------------------------------1--------------|
|4-0-1-0-2-0-1-0---0-1-0-2-0-1-0-4-0-1-0-2-0-1-0---0-1-0-2-0-1-0|

Fig. 3
|-----------------------------|
|-----------------------------|
|-----------------------------|
|--------------------------2-1|
|2-1-4-22-1-2-1-2-1-4-22-1----|

Fig. 4
|-----------------------|
|-----------------------|
|-----------------------|
|-----------------------|
|5-0-3-0-2-0-6-0-5-0-3-0|

Fig. 5
|-------------------------------|
|-------------------------------|
|-------------------------------|
|-------------------------------|
|6-0-5-0-0-0-0-0-3-0-2-0-6-0-5-0|

Fig. 6
(Yes, Alex does finger tap on his bass.  I see him do it on the DVD! ;) 
 Make sure you tap hard or it will sound dull.)
a.
|-----------------------------------------------------------------------|
|-----------------------------------------------------------------------|
|------------------------------------12p0h1h2-12p0h2h3------------------|
|------------------12p0h1h2-12p0h2h3-------------------12p0h1h2-12p0h2h3|
|12p0h1h2-12p0h2h3------------------------------------------------------|

b.
|-----------------------------------------------------------------------|
|-----------------------------------------------------------------------|
|------------------------------------12p9p6p0-12p6p3p0------------------|
|------------------12p0h3h6-12p0h6h9-------------------12p9p6p0-12p6p3p0|
|12p0h3h6-12p0h6h9------------------------------------------------------|

Fig. 7
|-----------------------------------------|
|-----------------------------------------|
|-----------------------------------------|
|-----------------------------------------|
|1111-2-0-3-0-6-0-5-0-2222-2-0-3-0-6-0-5-0|

|----------------------------------------|
|----------------------------------------|
|----------------------------------------|
|1111----------------0000----------------|
|----2-0-3-0-6-0-5-0------2-0-3-0-6-0-5-0|

|-------------------------------|
|-------------------------------|
|-------------------------------|
|-------------------------------|
|0---0---0---0---2-0-3-0-6-0-5-0|
"            
Hard to play? Try these video lessons and learn fast. | Correct




comments powered by Disqus
↑ Back to top | Tablatures and chords are parodies/interpretations of the original songs. You may use it for private study, scholarship, research or language learning purposes only