» » »

Cannibal Corpse, The Bleeding Tabs (ver.1)

Artists:  A B C D E F G H I J K L M N O P Q R S T U V W X Y Z # 

The Bleeding Tabs (ver.1)

Cannibal Corpse Tabs
 Rating:
4/5 (4 votes)
The Bleeding lessons Tabs too difficult? Try these video lessons and learn fast
                ----------------------------------------------------------------------------
----------------------------------------------------------------------------

its right and its a kool song so there ya go!


Riff 1 x8
e|---------------------------------------|
B|---------------------------------------|
G|---------------------------------------|
D|---------------------------------------|
A|-----------2-2-2-2-------4----2-2-2-2--|
E|--5-6-5-3--0-0-0-0---5-6---6--0-0-0-0--|
             . . . .              . . . .

Riff 1B x4
  Guitar 1                        Guitar 2
e|-----------------------|      e|-----------------------|
B|-----------------------|      B|-----------------------|
G|-----------------------|      G|------------------1----|
D|-----------------------|      D|--------------2-3---3--|
A|------------------4----|      A|--3-4-3-1--------------|
E|--5-6-5-3-----5-6---6--|      E|-----------------------|

Riff 1C x4
  Guitar 1                        Guitar 2
e|-----------------------|      e|----------------------|
B|-----------------------|      B|----------------------|
G|-----------------------|      G|-----------------6----|
D|-----------------------|      D|--7-8-7-5----7-8---8--|
A|------------------4----|      A|----------------------|
E|--5-6-5-3-----5-6---6--|      E|----------------------|

Repeat Riff 1 x4
Repeat Riff 1B x4
Repeat Riff 1C x4

Riff 2 x3
e|-----------------------------------------------------------------------|
B|-----------------------------------------------------------------------|
G|-------------1----------------------------------1----------------------|
D|---2-3-2---3---3---2-3-2---3-4-3------2-3-2---3---3---2-3-2----2h3-1~--|
A|-0-------0-------0-------0----------0-------0-------0------------------|
E|-----------------------------------------------------------------------|
   .       .       .       .

Riff 2B x2
e|-------------------------------------------------------------------------|
B|-------------------------------------------------------------------------|
G|-------------11------------------------------------11--------------------|
D|--223322---33--33---223322---334433-----223322---33--33---223322---2h3-1-|
A|0--------0--------0--------0----------0--------0--------0----------------|
E|-------------------------------------------------------------------------|

Riff 3 x2
e|-------------------------------------------------------------------------|
B|-------------------------------------------------------------------------|
G|-------------------------------------------------------------------------|
D|-223322-----------2233-6-3-----------223322-----------2233-4-3----2-3-1~-|
A|--------2-2-2-2------------2-2-2-2----------2-2-2-2----------------------|
E|--------0-0-0-0------------0-0-0-0----------0-0-0-0----------------------|
          . . . .            . . . .          . . . .

Riff 4 x2
e|-----------------------------------------------------|
B|--------------------------------------------------4--|
G|--------------2---------------------------2-------3--|
D|----1-2-3-2-1---3-2-3-2-1-------1-2-3-2-1---3-2-3-1--|
A|--0---------------------------0----------------------|
E|-----------------------------------------------------|

e|-----------------------------------------------------|
B|-----------------------------------------------------|
G|--------------------------------------------------3--|
D|--------------2---------------------------2-------3--|
A|------2-3-2-1---3-2-3-2-1---------2-3-2-1---3-2-0-1--|
E|--0-1-------------------------0-1--------------------|

Repeat Riff 2 x2
Repeat Riff 2B x2
Repeat Riff 3 x2
Repeat Riff 4 x2
Repeat Riff 1 x4
Repeat Riff 1B x8

Fig. 1 x5
e|-----------------------------------------------|
B|-----------------------------------------------|
G|-----------------------------------------------|
D|----------4-3---------6-5---------5-6-----3-4--|
A|----------2-1---------4-3---------3-4-5-6-1-2--|
E|--0-3-2-0-----0-3-2-0-----0-2-3-0-----3-4------|

Fig. 2 x8
e|------------------------------|
B|------------------------------|
G|------------------------------|
D|-------------4-3---------6-5--|
A|-------------2-1---------4-3--|
E|--0-2-2h3p20-----0-3-2-0------|

Repeat Riff 2 x2
Repeat Riff 2B x2
Repeat Riff 3 x2
Repeat Riff 4 x2

| ~  vibrato
| ^  bend
| .  palm mute
| r  release
| t  trill
| p  pull-off
| h  hammer-on
| x  ghost note
| /  slide up
| \  slide down
============================================================================
            
Submit corrections

comments powered by Disqus
↑ Back to top | Cannibal Corpse Tabs for The Bleeding. Lyrics for acoustic guitar and electric guitar. Tablatures and chords are parodies/interpretations of the original songs. You may use it for private study, scholarship, research or language learning purposes only