» » »

Cannibal Corpse, The Bleeding Bass tabs (ver.1)

Artists:  A B C D E F G H I J K L M N O P Q R S T U V W X Y Z # 

The Bleeding Bass tabs (ver.1)

Cannibal Corpse Tabs
 Rating:
4/5 (4 votes)
The Bleeding lessons Tabs too difficult? Try these video lessons and learn fast
                tune down to B-E-A-D

8x
|-------------------------|-------------------------|
|-------------------------|-------------------------|
|-------------2--2--2--2--|-------4-----2--2--2--2--|
|-5--6--5--3--0--0--0--0--|-5--6-----6--0--0--0--0--|

4x
|-------------------------|
|-------------------------|
|-------------------4-----|
|-5--6--5--3--5--6-----6--|

|-------------------1-----|
|-------------2--3-----3--|
|-3--4--3--1--------------|
|-------------------------|


4x
|-------------------6-----|
|-7--8--7--5--7--8-----8--|
|-------------------------|
|-------------------------|


|-------------------1-----|
|-------------2--3-----3--|
|-3--4--3--1--------------|
|-------------------------|

|-14-15-14-12~14-15-18~---|-14-15-14-12~14h15p14-12~|-14-1512~----------|
|-------------------------|-------------------------|-------------------|
|-------------------------|-------------------------|-------------------|
|-------------------------|-------------------------|-------------------|

|-----------------------------------------------------------------|
|-----------------------------------------------------------------|
|-0--h7--h8--p7---0---h8--h11-p8---0--h7--h8--p7---0--h8--h9--p8--|
|-----------------------------------------------------------------|

|-------------------------------------------------------------------|
|-------------------------------------------------------------------|
|-0--h7--h8--p7---0---h8--h11-p8---0--h7--h8--p7---7-h8-p7-6--------|
|-------------------------------------------------------------------|


|-------------------------------------------------------------------|
|-------------------------------------------------------------------|
|-0-0-7-7-8-8-7-7-0-0-8-8-11-11-8-8-0-0-7-7-8-8-7-7-0-0-8-8-9-9-8-8-|
|-------------------------------------------------------------------|

|---------------------------------------------------------------------|
|---------------------------------------------------------------------|
|-0-0-7-7-8-8-7-7-0-0-8-8-11-11-8-8-0-0-7-7-8-8-7-7--7-h8-p7-6--------|
|---------------------------------------------------------------------|

|-------------------------------------------------------------------|
|-------------------------------------------------------------------|
|-0-0-7-7-8-8-7---2---2---2---2---0-0-8-8-11-11-8---2---2---2---2---|
|-----------------0---0---0---0---------------------0---0---0---0---|


|-------------------------------------------------------------------|
|-------------------------------------------------------------------|
|-0-0-7-7-8-8-7---2---2---2---2---0-0-8-8-9-9-8-8--7-h8-p7-6--------|
|-----------------0---0---0---0-------------------------------------|
            
Submit corrections

comments powered by Disqus
↑ Back to top | Cannibal Corpse Bass for The Bleeding. Lyrics for acoustic guitar and electric guitar. Tablatures and chords are parodies/interpretations of the original songs. You may use it for private study, scholarship, research or language learning purposes only