» » »

Cannibal Corpse, Shredded Humans Tabs (ver.1)

Artists:  A B C D E F G H I J K L M N O P Q R S T U V W X Y Z # 

Shredded Humans Tabs (ver.1)

Cannibal Corpse Tabs
 Rating:
4/5 (4 votes)
Shredded Humans lessons Tabs too difficult? Try these video lessons and learn fast
1
                Tune your guitar accordingly, I believe it's a half step down...

|----------------|
|----------------|
|----------------|
|---3--3---3--3--|
|---3--3---3--3--|
|----------------|
This is the intro right after the engine noise...


|----------------------------------------------------------------|
|----------------------------------------------------------------|
|----------------------------------------------------------------|
|--3---3---3--3---3---3--3---3---3--3---3---3--------------------|
|--3---3---3--3---3---3--3---3---3--3---3---3----2------1--------|
|---4-3-4-3-4--4-3-4-3-4--4-3-4-3-4--4-3-4-3-4----3-2-1---3-2-1--|

|----------------------------------------------------------------|
|----------------------------------------------------------------|
|----------------------------------------------------------------|
|----------------------------------------------------------------|
|---2------1------2------1------2------1-------------------------|
|----3-2-1--3-2-1--3-2-1--3-2-1--3-2-1---3-2-1-------------------|
Repeat this a couple of times...

|----------------------------------------------------------------|
|----------------------------------------------------------------|
|----------------------------------------------------------------|
|----------------------------------------------------------------|
|------6-5-----4-3-----------------------------------------------|
|---333----333-2-1-----------------------------------------------|
Early hours...

|----------------------------------------------------------------|
|----------------------------------------------------------------|
|----------------------------------------------------------------|
|----------------------------------------------------------------|
|---2-1-3-2-2-1-3-2-2-1-3-2-2-1-3-2------------------------------|
|---2-1-3-2-2-1-3-2-2-1-3-2-2-1-3-2------------------------------|
These are the little bursts as it goes into "Father of three..."

|----------------------------------------------------------------|
|----------------------------------------------------------------|
|----------------------------------------------------------------|
|----------------------------------------------------------------|
|---3--4--5--6--3--4--5--6--3--4--5--6--3--4--5--6---------------|
|----00-00-00-00-00-00-00-00-00-00-00-00-00-00-00----------------|
This is the "Father of three..." Palm mute the open strings...

play the bursts again...then play them through the "Mother took a
flight throught the glass..."

|----------------------------------------------------------------|
|----------------------------------------------------------------|
|----------------------------------------------------------------|
|----------------------------------------------------------------|
|---1--2--2-2-2--------------------------------------------------|
|----2--3-0-0-0--------------------------------------------------|
         |p. m.|
Play this part through "Fourth child on the way..." all the way to
"smashed against the ceiling, all their skin, burning and peeling"

|----------------------------------------------------------------|
|----------------------------------------------------------------|
|----------------------------------------------------------------|
|----------------------------------------------------------------|
|---1-0-1-0-1-0-1----1-0-1-0-4-3---------------------------------|
|-----------------1----------------------------------------------|
"Underneath the wheel..." part. Picked kind of fast. Played 4 times.

|----------------------------------------------------------------|
|----------------------------------------------------------------|
|----------------------------------------------------------------|
|----------------------------------------------------------------|
|------6-5-----4-3-----------------------------------------------|
|---333----333-2-1-----------------------------------------------|
"Family of four..." part...played 8 times....i think.

Little bursts again...then...

|----------------------------------------------------------------|
|----------------------------------------------------------------|
|----------------------------------------------------------------|
|----------------------------------------------------------------|
|----6-6-5---8-8-7---10-10-9--2-2-2------------------------------|
|---3------5-------7----------0-0-0------------------------------|
There are some variations on this...it's all palm muted.

|----------------------------------------------------------------|
|----------------------------------------------------------------|
|----------------------------------------------------------------|
|----------------------------------------------------------------|
|---4-3--2xxxxx---4-3-2xxxxx---4-3-2xxxxx---4-3-2xxxxx-----------|
|---2-1--0xxxxx---2-1-0xxxxx---2-1-0xxxxx---2-1-0xxxxx-----------|

...solo...

|----------------------------------------------------------------|
|----------------------------------------------------------------|
|----------------------------------------------------------------|
|----------------7-8-----------------------7-8-------------------|
|---4-3-2xxxxx---5-6-2xxxxx---4-3-2xxxxx---5-6-2xxxxx------------|
|---2-1-0xxxxx-------0xxxxx---2-1-0xxxxx-------------------------|
during solo hit the higher two chords...that's the only difference.
            
Submit corrections

comments powered by Disqus
↑ Back to top | Cannibal Corpse Tabs for Shredded Humans. Lyrics for acoustic guitar and electric guitar. 1 Tablatures and chords are parodies/interpretations of the original songs. You may use it for private study, scholarship, research or language learning purposes only