>
 >
She Was Asking For It

She Was Asking For It Guitar Tabs

Cannibal Corpse - She Was Asking For It chords, tabs, tablatures, lyrics

Guitar lessons | Add/correct | Request | Top 50 tabs Artists:  A B C D E F G H I J K L M N O P Q R S T U V W X Y Z 0-9

She Was Asking For It Guitar Tabs – Cannibal Corpse

CD, Sheet music, Poster

Do you like She Was Asking For It? Share with your friends now
Tabs
.=palm mute
h=hammer on
p=pull off
tr - trill
/=slide up
\=slide down
() - ghost note(unless in trill)



riff 1                                                           
|----------------------------------------|
|----------------------------------------|
|---0-2(tr3)---0-2(tr3)---0-2(tr3)-------|
|----------------------------------------|
|-5----------5----------5----------5-4-3-|
|-3----------3----------3----------3-2-1-|
  .          .  	.          . . .

riff 2
|-----------------------------------------------------------------------------------------------|
|-----------------------------------------------------------------------------------------------|
|-----------------------------------------------------------------------------------------------|
|-----------------------------------------------------------------------------------------------|
|-9\8---8/9---7/8---1111---9\8---8/9---8\7---55---9\8---8/9---7/8---1111---9\8---5\7---7/8---55-|
|-7\6-0-6/7-0-5/6-0--9-9---7\6-0-6/7-0-6\5-0-33---7\6-0-6/7-0-5/6-0--9-9---7\6-0-6\5-0-5/6-0-33-|
      .     .     .           .     .     .           .     .     .            .     .     .

riff 3
|------------------------------------------------|
|------------------------------------------------|
|------------------------------------------------|
|------------------------------------------------|
|-8/9\8/9-8---7/8---7/8---8/9\8/9-8---7/8---11\8-|
|-6/7\6/7-6-0-5/6-0-5/6-0-6/7\6/7-6-0-5/6-0--9\6-|
            .     .     .           .     .

riff 4                        x3                    x1
|------------------------------| |-------------------|
|------------------------------| |-------------------|
|------------------------------| |-------------------|
|------------------------------| |-------------------|
|-11\8---11\8---11\8---8/9\8/9-| |-11\8---11\8---5-8-|
|--9\6-0--9\6-0--9\6-0-6/7\6/7-| |--9\6-0--9\6-0-3-6-|
       .      .      .                  .      .

riff 4a                       x3                        x1
|------------------------------| |-----------------------|
|------------------------------| |-----------------------|
|------------------------------| |-----------------------|
|------------------------------| |-------------------6---|
|-11\8---11\8---11\8---8/9\8/9-| |-11\8---11\8---5-8-4-8-|
|--9\6-0--9\6-0--9\6-0-6/7\6/7-| |--9\6-0--9\6-0-3-6---6-|
       .      .      .                  .      .

riff 5
|--------------------------------------------------|
|--------------------------------------------------|
|--------------------------------------------------|
|--------------------------5-----------------------|
|-8/9\8/9-8---7/8---11\8-----7-4-7-4---7-4---5-4---|
|-6/7\6/7-6-0-5/6-0--9\6-0-----------6-----6-----0-|
            .     .      .                       .

riff 6                        x3                                        x1
|------------------------------| |---------------------------------------| 
|------------------------------| |---------------------------------------| 
|------------------------------| |---------------------------------------| 
|------------------------------| |---------------------------6---6-------| 
|-11\8---11\8---11\8---8/9\8/9-| |-11\8---11\8---8/9\8/9-5-8-4-8-4-2-5-8-| 
|--9\6-0--9\6-0--9\6-0-6/7\6/7-| |--9\6-0--9\6-0-6/7\6/7-3-6---6---0-3-6-| 
       .      .      .                  .      .

riff 7                                                                            1_______________
|--------------------------------------------------------------------------------------------------|
|--------------------------------------------------------------------------------------------------|
|--------------------------------------------------------------------------------------------------|
|--------------------------------------------------------------------------------------------------|
|-9\8---8/9---7/8------------9\8---8/9---8\7------------9\8---8/9---7/8------------9\8---8/9---5-8-|
|-7\6-0-6/7-0-5/6-0-99999999-7\6-0-6/7-0-6\5-0-33333333-7\6-0-6/7-0-5/6-0-99999999-7\6-0-6/7-0-3-6-|
      .     .     .              .     .     .              .     .     .              .     .  

 2______________________________________________________
|--------------------------------------------------------|
|--------------------------------------------------------|
|--------------------------------------------------------|
|--------------------------------------------------------|
|-------------------44444444--------44444444---------5-7-|
|-0-3333333366666666--------66666666--------00000000-3-5-|
  .

riff 8
|---------------------------------------------------|
|---------------------------------------------------|
|-----------------------------------------------a.h-|
|------------------------------------------------5--|
|-8\7-------6/7---5/6\5-----------------------------|
|-6\5-0-0-0-4/5-0-3/4\3-0-0-00002222333344443333----|
      . . .     .       . .

riff 8a 
|---------------------------------------------|
|---------------------------------------------|
|-----------------------------------------a.h-| 
|------------------------------------------5--| GTRI
|-8\7-------6/7---4h5p4-----------------------|
|-6\5-0-0-0-4/5-0-------0-2222333344443333----|
|     . . .     .       .
|
|---------------------------------------------|
|---------------------------------------------|
|-----------------------------------------a.h-| 
|------------------------------------------5--| GTRI
|-8\7-------6/7---7h8p7-----------------------|
|-6\5-0-0-0-4/5-0-------0-2222333344443333----|
|     . . .     .       .

riff 8b
|-------------------------------------------|
|-------------------------------------------|
|---------------------------------------a.h-|
|-----------------6----------------------5--|
|-8\7-------4/5---4-------------------------|
|-6\5-0-0-0-2/3-0-4-0-0-0000222233334444----|
      . . .     .   . .

riff 8c
|----------------------------------------|
|----------------------------------------|
|----------------------------------------|
|-----------------6----------------------|
|-8\7-------5/6---4----------------------|
|-6\5-0-0-0-3/4-0-4-0-0-0000222233334444-|
      . . .     .   . .

riff 9                                                                            1_______________
|--------------------------------------------------------------------------------------------------|
|--------------------------------------------------------------------------------------------------|
|--------------------------------------------------------------------------------------------------|
|--------------------------------------------------------------------------------------------------|
|-9\8---8/9---7/8------------9\8---8/9---8\7------------9\8---8/9---7/8------------9\8---8/9---5-8-|
|-7\6-0-6/7-0-5/6-0-99999999-7\6-0-6/7-0-6\5-0-33333333-7\6-0-6/7-0-5/6-0-99999999-7\6-0-6/7-0-3-6-|
      .     .     .              .     .     .              .     .     .              .     .

 2__________________________________________________________________
|--------------------------------------------------------------------|
|--------------------------------------------------------------------|
|--------------------------------------------------------------------|
|--------------------------------------------------------------------|
|-------------------44444444--------44444444-------------------------|
|-0-3333333366666666--------66666666--------000000003333333355555555-|
  .

riff 10                       x3                                                                                   x1
|------------------------------| |----------------------------------------------------------------------------------|
|------------------------------| |----------------------------------------------------------------------------------|
|------------------------------| |----------------------------------------------------------------------------------|
|------------------------------| |----------------------------------------------------------------------------------|
|-11\8---11\8---11\8---8/9\8/9-| |-11\8---11\8-------------------44444444--------4444444477777777-----------------7-|
|--9\6-0--9\6-0--9\6-0-6/7\6/7-| |--9\6-0--9\6-0-3333333366666666--------66666666----------------3333333355555555-5-|
       .      .      .                  .      .

song order
                                                                                        
riff 1 x 6
riff 2 x 2
riff 1 x 4
riff 3 x 6
riff 4 x 1
riff 4a x 1
riff 5 x 4
riff 3 x 4
riff 4 x 1
riff 6 x 1
riff 7 x 1
riff 8 x 5
riff 8a x 1
riff 8 x 1
riff 8a x 1
riff 8b x 3
riff 8c x 1
riff 1 x 4
riff 9 x 1
riff 3 x 2
riff 4 x 1
riff 10 x 1





Comments


Popular Cannibal Corpse tabs & chords
Carnivorous Swarm Tabs
Condemned To Agony Tabs
Evisceration Plague Tabs
Make Them Suffer Tabs
Pick Axe Murders Tabs
Sentenced To Burn 2 Tabs
Shatter Their Bones Intro Tabs
The Exorcist Tabs
The Pick-axe Murders Tabs
Rancid Amputation Ukulele


Song lyrics



↑ Back to top | Tablatures and chords are parodies/interpretations of the original songs. You may use it for private study, scholarship, research or language learning purposes only
© 2014 AZChords.com Contact us | Privacy policy | DMCA | Add/correct tabs | Request tabs | Top 50 tabs