» » »

Rotting Head Tabs (ver.1)

Artists:  A B C D E F G H I J K L M N O P Q R S T U V W X Y Z # 

Rotting Head Tabs (ver.1)

Cannibal Corpse
Rating:
0/5 (0 votes)

Hard to play? Try these video lessons and learn fast.
                
Tuning: Eb (half step down)

Notation Key
v: vibrato
t: tremolo bar
^: bend
.: palm mute
~: trill
p: pull-off
h: hammer-on
x: ghost note
/: slide up
\: slide down


Riff 1 x1
e|------------------------------------|
B|------------------------------------|
G|------------------------------------|
D|------------------------------------|
A|--------2---------1--------2---1----|
E|--03020---1-03020---2-03020--1---2--|

Riff 2 x4
e|---------------------------------------------|
B|---------------------------------------------|
G|---------------------------------------------|
D|---------------------------------------------|
A|--------2---------1---------2---32252232222--|
E|--03020---1-03020---2-03020---1--------------|

Fig. 1 x5 (Quivering pile of useless flesh, locked in a padded cell...)
e|---------------------------------|
B|---------------------------------|
G|---------------------------------|
D|------------------------------3--|
A|------2-------2-------2-------1--|
E|--1-2---3-1-2---3-1-2---3-1-2----|

Fig. 2 x1
e|---------------------|
B|---------------------|
G|---------------------|
D|------3-----3--------|
A|------1-----1-----2--|
E|--1-2---1-2---1-2-0--|

Fig. 3 x2 (Hideous heredity, genetic imbalance...)
e|---------------------------------|---------------------------------|
B|---------------------------------|---------------------------------|
G|---------------------------------|---------------------------------|
D|------------------------------5--|------------------------------3--|
A|------4-------4-------4-------3--|------4-------4-------4-------1--|
E|--3-4---5-3-4---5-3-4---5-3-4----|--3-4---5-3-4---5-3-4---4-3-4----|

Fig. 4 x1 (The sights before your eyes you can't describe...)
e|-------------------------------------------------------------------------------------------|
B|-------------------------------------------------------------------------------------------|
G|-------------------------------------------------------------------------------------------|
D|--4-3---------------------4-3---------------------4-3---------------------4-3--------------|
A|--2-1---------5-4---------2-1---------3-4---------2-1---------5-4---------2-1---------3-4--|
E|------0-0-0-0-3-2-0-0-0-0-----0-0-0-0-1-2-0-0-0-0-----0-0-0-0-3-2-0-0-0-0-----0-0-0-0-1-2--|

Repeat Riff 1 x1
Repeat Riff 2 x4

Fig. 5 x8 (Slimy, cozing, dripping pus, torn out...)
e|----------------------|
B|----------------------|
G|----------------------|
D|--5\2-5\2-------------|
A|--3\0-3\0-322522322---|
E|-------------------3--|

Fig. 6 x4
e|------------------------|
B|------------------------|
G|------------------------|
D|--5\4-5\4---------------|
A|--3\2-3\2-322522322522--|
E|------------------------|

Repeat Riff 2 x4
Repeat Fig. 1 x1

Outro x1 (Quivering pile of useless flesh, locked in a padded cell!)
e|---------------------------------|
B|---------------------------------|
G|---------------------------------|
D|---------------------------------|
A|------2-------2-------2-------2--|
E|--1-2---3-1-2---3-1-2---3-1-2-0--|
            
Hard to play? Try these video lessons and learn fast. | Correct




comments powered by Disqus
↑ Back to top | Tablatures and chords are parodies/interpretations of the original songs. You may use it for private study, scholarship, research or language learning purposes only