» » »

Pulverized Tabs (ver.1)

Artists:  A B C D E F G H I J K L M N O P Q R S T U V W X Y Z # 

Pulverized Tabs (ver.1)

Cannibal Corpse
Rating:
0/5 (0 votes)

Hard to play? Try these video lessons and learn fast.
                [hook riff, used a lot in this song]
|-----------------
|-----------------
|-----------------
|--4/5-3---5/6-4--
|--4/5-3---5/6-4--
|--2/3-1---3/4-2--

Riff 1
|------------------------------------
|------------------------------------
|--6p0-------------6p0-777788887777--
|------555544440000------------------
|------------------------------------
|------------------------------------

|------------------------------------
|------------------------------------
|--6p0-------------6p0-888877776666--
|------555544440000------------------
|------------------------------------
|------------------------------------


Riff 2
|------------------------------------
|------------------------------------
|------------------------------------
|------------------------------------
|--4---------------4---555566665555--
|----0-333322220000--0---------------

|------------------------------------
|------------------------------------
|------------------------------------
|------------------------------------
|--4---------------4---666655554444--
|----0-333322220000--0---------------


Riff 3
|---------------------------------
|---------------------------------
|---------------------------------
|--4/5-3---5/6-4---4/5-3---5/6-4--
|--4/5-3---5/6-4---4/5-3---5/6-4--
|--2/3-1---3/4-2---2/3-1---3/4-2--

|------------------------------------
|------------------------------------
|------------------6p0---------------
|--4/5-3---5/6-4-------555544440000--
|--4/5-3---5/6-4---------------------
|--2/3-1---3/4-2---------------------


Riff 4
[+ = artificial harmonic]
|--------------------------
|--------------------------
|--------------------------
|----------+---3---3/6-----
|--444433331---3---3/6-+---
|--------------1---1/4-3---

Riff 4 [gtr. 2]
|--------------------------
|--------------------------
|--------------+-----------
|----------+---2---3/6-----
|--444433331-------3/6-+---
|------------------1/4-3---

Riff 5
|----------------------------------
|----------------------------------
|----------------------------------
|------------------4/5-3---5/6-4---
|--66665555888877774/5-3---5/6-4---
|------------------2/3-1---3/4-2---

Riff 5 [gtr. 1]
[~ = tremolo pick same as above]
|----------------------------------
|----------------------------------
|----------------------------------
|--8~~~7~~~10~~9~~~4/5-3---5/6-4---
|------------------4/5-3---5/6-4---
|------------------2/3-1---3/4-2---

Riff 5 [gtr. 2]
|----------------------------------
|----------------------------------
|--8~~~7~~~10~~9~~~----------------
|------------------4/5-3---5/6-4---
|------------------4/5-3---5/6-4---
|------------------2/3-1---3/4-2---
            
Hard to play? Try these video lessons and learn fast. | Correct




comments powered by Disqus
↑ Back to top | Tablatures and chords are parodies/interpretations of the original songs. You may use it for private study, scholarship, research or language learning purposes only