>
 >
Psychotic Precision

Psychotic Precision Guitar Tabs

Cannibal Corpse - Psychotic Precision chords, tabs, tablatures, lyrics

Guitar lessons | Add/correct | Request | Top 50 tabs Artists:  A B C D E F G H I J K L M N O P Q R S T U V W X Y Z 0-9

Psychotic Precision Guitar Tabs – Cannibal Corpse

CD, Sheet music, Poster

Do you like Psychotic Precision? Share with your friends now
TabsTabs v2
Band:  Cannibal Corpse
Copyright (c) Metal Blade 2004
Version 1.4  2-12-11
.  - palm mute           /  - slide up to
\  - slide down to       ~  - vibrato
h  - hammer on           b  - Bend
p  - pull off            Suffixes for bend
t  - tap                 f  - full bend    h - half bend
ph - pinched harmonic    q  - quarter bend t - tap bend
*  - see comment         ^  - Hold bend    r release bend
x  - Stuccatto           ~  - vibrato bend
,  - slight palm mute    () - ghost note, sustained note
"  - tremolo note        <> - Trill

Tuning 6 half steps down: Bb-Eb-Ab-Db-F-Bb

Guitar one = left side
Guitar two = right side

    Both guitars 8 times
|-riff-A-------------------|
|--------------------------|
|---------------------ph---|
|---------------------4-bh-|
|--------------------------|
|-5-4-0-7-6-0-3-2-0--------|
  . . . . . . . . .

     both guitars 2 times
|-riff-B----------------------|
|-----------------------------|
|---------0034300034300067640-|
|-----------------------------|
|-3---------------------------|
|-1---0-----------------------|
  .   .

 guitar one 4 times/guitar two 2 times
|-riff-C-----------------------------|
|------------------------------------|
|-11111111---------------------------|
|---------3333-----------------------|
|-------------55---------------------|
|------------------4-7-3-6-2-5-1-4---|
                   . . . . . . . .

      guitar two on third time
|-riff-C-----------------------------|
|------------------------------------|
|-44444444---------------------------|
|---------6666-----------------------|
|-------------88---------------------|
|------------------4-7-3-6-2-5-1-4---|
                   . . . . . . . .

      guitar two on fourth time
|-riff-C-----------------------------|
|------------------------------------|
|-44444444---------------------------|
|---------6666-----------------------|
|-------------88---------------------|
|------------------7-10-6-9-5-8-4-7--|
                   .  . . . . . . .

 guitar one 4 times/guitar two 2 times
|-riff-B----------------------|
|-----------------------------|
|---------0034300034300067640-|
|-----------------------------|
|-3---------------------------|
|-1---0-----------------------|
  .   .
 guitar two on third & fourth time
|-riff-B-----------------------|
|------------------------------|
|---------00676000676000910970-|
|------------------------------|
|-3----------------------------|
|-1---0------------------------|
  .   .
                guitar one 4 times/guitar two 2 times
|-riff-D--------------------------------------------------------------|
|---------------------------------------------------------------------|
|---------------------------------------------------------------------|
|-5--7--------8--7-8-7--------8--7--8--7--------8-7--555566335566--|
|-3-5-8--7--6-5--6--5-8--7--6-5-6--5--8-7--6--5----------------|
|-------6--5--------------6--5--------------6--5----------------------|
  .  .  .  .  .  .  .  .  .  .  .  .  .  .  .  .  .  .

                   guitar two on third & fourth time
|-riff-D--------------------------------------------------------------|
|---------------------------------------------------------------------|
|---------------------------------------------------------------------|
|-5--7--------8--7-8-7--------8--7--8--7--------8-7--888899668899--|
|-3-5-8--7--6-5--6--5-8--7--6-5-6--5--8-7--6--5----------------|
|-------6--5--------------6--5--------------6--5----------------------|
  .  .  .  .  .  .  .  .  .  .  .  .  .  .  .  .  .  .

                        both guitars 2 times
|-riff-E----------------------------------------------------------------|
|-----------------------------------------------------------------------|
|------------0--1--0--1--0--1--0--1-------------1--0--1--0--1--0--1-0--|
|-5-\-3-/-6--0--1--0--1--0--1--0--1--5-\-3-/-6--1--0--1-0-1--0--1--0--|
|-----------------------------------------------------------------------|
|-3-\-1-/-4--------------------------3-\-1-/-4--------------------------|
             .  .  .  .  .  .  .  .             .  .  .  .  .  .  .  .


                         guitar one 1 time
|-riff-F-------------------------------------------------------------|
|--------------------------------------------------------------------|
|-------------------------------------------------------------6------|
|-6--5-----3h6------6--5--------------6--5--------5-----6--------6h--|
|-6--5--7-------5h--6--5--7-4h7------6--5--7--5-----4-----4---------|
|-------7-----------------7-------6h--------7------------------------|
  .  .  .           .  .  .           .  .  .  .     .     .


                         guitar two 1 time
|-riff-F-------------------------------------------------------------|
|--------------------------------------------------------------------|
|--------------------------------------------------------------------|
|-6--5--------------6--5--------------6--5---------------------------|
|-6--5--7--3--------6--5--7--3--------6--5--7--5---------------------|
|-------7--3--------------7--3--------------7------------------------|
  .  .  .           .  .  .           .  .  .

again riff D = 4 times
again riff E = 2 times
again riff F = 1 time
again riff A = 8 times

guitar one 4 times
|-riff-G----------------|
|-----------------------|
|-----------------------|
|-----------------2--2--|
|--------9h----4--2--2--|
|-3--/--10--0--6--0--0--|
            .     .  .

 guitar two 4 times (chords)
|-riff-G----------------|
|-----------------------|
|-----------------------|
|-----------------2--2--|
|-----------------2--2--|
|-----------------0--0--|
                  .  .

 both guitars 8 times
|-----------------------|
|-----------------------|
|-----------------------|
|-----------------2--2--|
|--------9h----4--2--2--|
|-3--/--10--0--6--0--0--|
            .     .  .

                both guitars 1 time                 only guitar one
|-riff-H-------------------------------------------|-----------------|
|--------------------------------------------------|-----------------|
|--------------------------------------------------|-----------------|
|--------------------------------------------------|2222222222222222-|
|--------9h----22222-4---5---334422222-4---3-------|-----------------|
|-3--/--10--0--------2-0-3-0-----------2-0-1-03300|-----------------|
                     . . . .           . . . .

again riff G = 2 times (guitar two = chords)
again riff G = 8 times (both guitars)
again riff H = 1 time

again riff A under solo = 8 times
again riff B under solo = 2 times
again riff C under solo = 4 times

again riff B = 4 times
again riff D = 4 times



                        both guitars 2 times
|-riff-E----------------------------------------------------------------|
|-----------------------------------------------------------------------|
|------------0--1--0--1--0--1--0--1-------------1--0--1--0--1--0--1-0--|
|-5-\-3-/-6--0--1--0--1--0--1--0--1--5-\-3-/-6--1--0--1-0-1--0--1--0--|
|-----------------------------------------------------------------------|
|-3-\-1-/-4--------------------------3-\-1-/-4--------------------------|
             .  .  .  .  .  .  .  .             .  .  .  .  .  .  .  .
                         guitar one 2 times
|-riff-E----------------------------------------------------------------|
|-----------------------------------------------------------------------|
|------------0--1--0--1--0--1--0--1-------------1--0--1--0--1--0--1-0--|
|-5-\-3-/-6--0--1--0--1--0--1--0--1--5-\-3-/-6--1--0--1-0-1--0--1--0--|
|-----------------------------------------------------------------------|
|-3-\-1-/-4--------------------------3-\-1-/-4--------------------------|
             .  .  .  .  .  .  .  .             .  .  .  .  .  .  .  .
                         guitar two 2 times
|-riff-E----------------------------------------------------------------|
|-----------------------------------------------------------------------|
|-----------------------------------------------------------------------|
|-8-\-6-/-9--5-6-5--6--5--6--5--6--8-\-6-/-9--6--5--6--5--6--5--6--5--|
|------------5--6--5--6--5--6--5--6-------------6--5--6--5--6--5--6--5--|
|-6-\-4-/-7--------------------------6-\-4-/-7--------------------------|
             .  .  .  .  .  .  .  .             .  .  .  .  .  .  .  .
 both guitars/ending
|------------|
|------------|
|------------|
|-5-\-3-/-6--|
|------------|
|-3-\-1-/-4--|





Comments


Popular Cannibal Corpse tabs & chords
A Cauldron Of Hate Bass Tabs
Blowtorch Slaughter Bass Tabs
Encased In Concrete Bass Tabs
Fucked With A Knife Tabs
Gallery Of Suicide Tabs
Headless Tabs
Hung And Bled 1 Tabs
I Will Kill You 2 Tabs
Infinite Misery Tabs
Starring Through The Eyes Of The Dead Tabs


Song lyrics



↑ Back to top | Tablatures and chords are parodies/interpretations of the original songs. You may use it for private study, scholarship, research or language learning purposes only
© 2014 AZChords.com Contact us | Privacy policy | DMCA | Add/correct tabs | Request tabs | Top 50 tabs