>
 >
Meat Hook Sodomy 2

Meat Hook Sodomy 2 Guitar Tabs

Cannibal Corpse - Meat Hook Sodomy 2 chords, tabs, tablatures, lyrics

Guitar lessons | Add/correct | Request | Top 50 tabs Artists:  A B C D E F G H I J K L M N O P Q R S T U V W X Y Z 0-9

Meat Hook Sodomy 2 Guitar Tabs – Cannibal Corpse

CD, Sheet music, Poster

Do you like Meat Hook Sodomy 2? Share with your friends now
TabsTabs v2Tabs v3
/---------------------------------------------------------------------------/
/    The following is the author's own interpretation of the song, to be    /
/                     used for private use and studying                     /
/---------------------------------------------------------------------------/

                    CANNIBAL CORPSE - MEATHOOK SODOMY
                     From the Album BUTCHERED AT BIRTH
                    Copyright 1991 METAL BLADE RECORDS

                          Version 666 - FEB '05


For Questions, Comments, Newest Version, or Corrections contact

Check Out Death Warp, With More Transcriptions On It:

..  - palm mute          /  - slide up to
 \  - slide down to      ~  - vibrato
 h  - hammer on          b  - bend
 p  - pull off            Suffixes for bend
                          ph - pinch harmonic
                           f - full bend    h - half bend
*  - see comment           r - release      t - tap bend
X  - percussion mute       ~ - vibrato bend
@  - slight palm mute     () - ghost note, sustained note

Tune Gtr to E-Flat (One Half Step Down)

--MEATHOOK SODOMY--

 |Riff A|
||---------------------------------------------||
||---------------------------------------------||
||:-------------------------------------------:||
||:-------------------------------------------:||
||--6___7-----10___9-----8___9-----10___11-12--||
||----h---0-0----h---0-0---h---0-0----h--------||


Play Riff A a total of 8 times.


 |Riff B|
||-------------------------------------------||
||-------------------------------------------||
||:-----------------------------------------:||
||:-----------------------------------------:||
||--3---------5---------4--------------------||
||--1-0-0-0-0-3-0-0-0-0-2-0-0-0-0-3_4_3-4_5--||
      . . . .   . . . .   . . . .  h p   h


Play Riff B a total of 8 times.


Repeat Riff A a total of 4 times.


 |Riff C|
||-------------------------------------------------||
||-------------------------------------------------||
||:-----------------------------------------------:||
||:-2-----------5-----------3-----------4/5--3/4--:||
||--2-----------5-----------3-----------4/5--3/4---||
||--0--0--0--0--3--0--0--0--1--0--0--0--2/3--1/2---||
       .  .  .     .  .  .     .  .  .  sl   sl


Play Riff C a total of 4 times.


 |Riff D|
||------------------------------------------||
||------------------------------------------||
||:----------------------------------------:||
||:----------------------------------------:||
||-----9--6-----8--5-----7--4-----6--3------||
||--0--7--4--0--6--3--0--5--2--0--4--1--0---||
    .  .  .  .  .  .  .  .  .  .  .  .  .


Play Riff D a total of 4 times.


 |Riff E|
||--------------------------------------------------------------------||
||--------------------------------------------------------------------||
||:-------------------------------------------------------------------||
||:-------------------------------------------------------------------||
||--------------------------------------------------------------------||
||--3-3-3-3-6-6-6-6-0-0-0-0-3-3-3-3-2-2-2-2-5-5-5-5-1-1-1-1-4-4-4-4---||
||                                                                    ||
||--------------------------------------------------------------------||
||--------------------------------------------------------------------||
||-------------------------------------------------------------------:||
||-------------------------------------------------------------------:||
||--------------------------------------------------------------------||
||--3-3-3-3-6-6-6-6-0-0-0-0-3-3-3-3-1-1-1-1-4-4-4-4-2-2-2-2-5-5-5-5---||


Play Riff E a total of 2 times.


 |Riff E.1|
||--------------------------------------------------------------------||
||--------------------------------------------------------------------||
||:-------------------------------------------------------------------||
||:-------------------------------------------------------------------||
||--------------------------------------------------------------------||
||--3"------6"------0"------3"------2"------5"------1"------4"--------||
||                                                                    ||
||--------------------------------------------------------------------||
||--------------------------------------------------------------------||
||-------------------------------------------------------------------:||
||-------------------------------------------------------------------:||
||--------------------------------------------------------------------||
||--3"------6"------0"------3"------1"------4"------2"------5"--------||


Play Riff E.1 a total of 2 times.


 |Riff E.2|
||----------------------------------|-----------------------------------||
||----------------------------------|-----------------------------------||
||----------------------------------|----------------------------------:||
||----------------------------------|----------------------------------:||
||----------------------------------|-----------------------------------||
||--3-3-6-6-0-0-3-3-2-2-5-5-1-1-4-4-|-3-3-6-6-0-0-3-3-1-1-4-4-2-2-5-5---||


Play Riff E.2 a total of 2 times.


 |Riff F|
||--------------------------------------||
||--------------------------------------||
||:------------------------------------:||
||:------------------------------------:||
||--2-2-2-2-----------------------------||
||--0-0-0-0------6--5--3--2_3_2_3_2_3---||
    . . . .      .  .  .   h p h p h


Play Riff F a total of 8 times.


 |Riff G|
||---------------------------------------------------------||
||---------------------------------------------------------||
||:-------------------------------------------------------:||
||:-------------------------------------------------------:||
||--5-4-3-5-4-3-------4-3-2-4-3-2-------3-2-1-3-2-1-3------||
||--------------5-4-3-------------4-3-2-------------1------||
    . . . . . . . . . . . . . . . . . . . . . . . .


Play Riff G a total of 4 times.


 |Riff G.1|
||---------------------------------------------------------||
||---------------------------------------------------------||
||:-------------------------------------------------------:||
||:-------------------------------------------------------:||
||--5-4-3-5-4-3-------4-3-2-4-3-2-------3-2-1-3-2-1-3------||
||--------------5-4-3-------------4-3-2-------------1------||
||  . . . . . . . . . . . . . . . . . . . . . . . .        ||
||---------------------------------------------------------||
||---------------------------------------------------------||
||:-------------------------------------------------------:||
||:-7-----------------6-----------------------------------:||
||--5-----------------4-----------------3-2-1-3-2-1-3------||
||--5-----------------4-----------------------------1------||
                                        . . . . . .


Play Riff G.1 a total of 4 times.


 |Riff G.2|
||---------------------------------------------------------||
||---------------------------------------------------------||
||:-------------------------------------------------------:||
||:-------------------------------------------------------:||
||--5-4-3-5-4-3-------4-3-2-4-3-2-------3-2-1-3-2-1-3------||
||--------------5-4-3-------------4-3-2-------------1------||
||  . . . . . . . . . . . . . . . . . . . . . . . .        ||
||---------------------------------------------------------||
||---------------------------------------------------------||
||:-------------------------------------------------------:||
||:-------------------------------------------------------:||
||--------------------------------------------------3------||
||--0-0-0-0-0-0-0-0-0-0-0-0-0-0-0-0-0-0-0-0-0-0-0-0-1------||
    . . . . . . . . . . . . . . . . . . . . . . . .


Play Riff G.2 a total of 2 times.


Repeat Riff G.1 a total of one time.


|Riff G.2|
|---------------------------------------------------------|
|---------------------------------------------------------|
|:-------------------------------------------------------:|
|:-7-----------------6-----------------------------------:|
|--5-----------------4-----------------3-2-1-3-2-1-3------|
|--5-----------------4-----------------------------1------|
                                        . . . . . .


Play Riff G.2 a total of one time.


Repeat Riff G a total of 4 times.


|Next|
|------------|
|------------|
|------------|
|------------|
|-3-(3)------|
|-1-(1)------|


|Riff H|
|-------------------------------------------------------|
|-------------------------------------------------------|
|:-----------------------------------------------------:|
|:--------------------------------------------------4--:|
|--------------------------------------4------4--5------|
|--5-5-5-5-5-6-4-4-4-4-4-5-3-3-3-3-3-4-2----------------|
|                                             .  .      |
|-------------------------------------------------------|
|-------------------------------------------------------|
|-------------------------------------------------------|
|---------------------------------------------------4---|
|--------------------------------------4------4--5------|
|--------------------------------------2----------------|
                                              .  .


Play Riff H a total of one time.


 |Riff H.1|
||---------------------------------------------------||
||---------------------------------------------------||
||:-------------------------------------------------:||
||:----------------------------------------------4--:||
||-----------------------------------------4--5------||
||--5-5-5-5-5-6-4-4-4-4-4-5-3-3-3-3-3-4-2------------||
                                           .  .


Play Riff H.1 a total of 6 times.


Repeat Riff E.2 a total of 2 times.
Repeat Riff E   a total of 2 times.


 |Riff I|
||------------------------------------------||
||------------------------------------------||
||:----------------------------------------:||
||:----------------------------------------:||
||--2-2-2-2-2-2-----------------------------||
||--0-0-0-0-0-0------8--7--5--4_5_4_5_4_5---||
    . . . . . .      .  .  .   h p h p h


Play Riff I a total of 4 times.


|Next|
|-----------|
|-----------|
|-----------|
|-----------|
|-tr--------|
|-4(5)------|


Repeat Riff B a total of 2 times.
Repeat Riff A a total of 2 times.
Repeat Riff B a total of one time.
Repeat Riff A a total of one time.
Repeat Riff B a total of one time.
Repeat Riff A a total of one time.
Repeat Riff B a total of one time.


 |Riff B.1|
||--------------------------------------------------------||
||--------------------------------------------------------||
||:------------------------------------------------------:||
||:------------------------------------------------------:||
||--3---------5---------4---------8___9------10___11-12---||
||--1-0-0-0-0-3-0-0-0-0-2-0-0-0-0---h----0-0----h---------||
      . . . .   . . . .   . . . .        . .


Play Riff B.1 a total of one time.


Repeat Riff B   a total of one time.
Repeat Riff B.1 a total of one time.
End!

Check Out Death Warp, With More Transcriptions On It:





Comments


Popular Cannibal Corpse tabs & chords
Addicted To Vaginal Skin 1 Bass Tabs
Angels Dont Kill Bass Tabs
Hammer-Smashed Face Bass Tabs
Stripped, Raped, And Strangled Bass Tabs
Butchered At Birth Tabs
Devoured By Vermin Tabs
No Remorse 1 Tabs
Scalding Hail Tabs
Shredded Humans 1 Tabs
The Cryptic Stench Tabs


Song lyrics



↑ Back to top | Tablatures and chords are parodies/interpretations of the original songs. You may use it for private study, scholarship, research or language learning purposes only
© 2014 AZChords.com Contact us | Privacy policy | DMCA | Add/correct tabs | Request tabs | Top 50 tabs