» » »

Cannibal Corpse, Living Dissection Tabs (ver.1)

Artists:  A B C D E F G H I J K L M N O P Q R S T U V W X Y Z # 

Living Dissection Tabs (ver.1)

Cannibal Corpse Tabs
 Rating:
4/5 (4 votes)
Living Dissection lessons Tabs too difficult? Try these video lessons and learn fast
                
Tuning: Eb (half step down)

Notation Key
v: vibrato
t: tremolo bar
^: bend
.: palm mute
~: trill
p: pull-off
h: hammer-on
x: ghost note
/: slide up
\: slide down


Riff 1 x12  
e|---------------|
B|---------------|
G|---------------|
D|---------------|
A|--1---0--------|
E|----3---2-1----|
    . . . . .       

Fill 1 x1
e|-------------------|
B|-------------------|
G|-------------------|
D|-------------------|
A|--1-0-----1-0------|
E|------2-1-----2-1--|

Riff 2 x8
e|-------------------|
B|-------------------|
G|-------------------|
D|--1----------------|
A|------5---1-4---4--|
E|----3---2-----3----|
    . . . . . . . .

Riff 3 x8
e|----------------------|
B|----------------------|
G|----------------------|
D|----------------------|
A|----------------------|
E|--00000000-7-0-6-5-3--|

Repeat Riff 1 x6
Repeat Fill 1 x1

Riff 4 x8 (Fingers missing from hands, ready to snap bones and necks...)
e|-----------|-----------|-----------|---------------|
B|-----------|-----------|-----------|---------------|
G|-----------|-----------|-----------|---------------|
D|--111------|--000------|-----------|------7-----8--|
A|-----------|-----------|--4h5p4----|----6-----6----|
E|------333--|------222--|--------5--|--5-----5------|

Riff 2B x4
e|-----------------------------------|
B|-----------------------------------|
G|-----------------------------------|
D|--111------------------------------|
A|----------555-----111-444-----444--|
E|------333-----222---------333------|

Repeat Riff 2 x4

Riff 2C x2
e|-----------------------------------|---------------------------|---------------|
B|-----------------------------------|---------------------------|---------------|
G|-----------------------------------|---------------------------|---------------|
D|--111------------------------------|--111----------------------|------7-----8--|
A|----------555-----111-444-----444--|----------555-----4h5p4----|----6-----6----|
E|------333-----222---------333------|------333-----222-------5--|--5-----5------|

Riff 5A x18
e|---------------|
B|---------------|
G|---------------|
D|----7----------|
A|--5------------|
E|------5-6-5-4--|
    . . . . . .

Riff 5B x8
e|---------------|
B|---------------|
G|---------------|
D|----4----------|
A|--2---2--------|
E|--------3-4-2--|

Riff 6 x6
e|---------------------------------|
B|---------------------------------|
G|---------------------------------|
D|------------------------------3--|
A|--222-------------------------3--|
E|------333-111-444-000-222-111-1--|

Riff 5C x10
e|---------------|
B|---------------|
G|---------------|
D|----7----------|
A|--5---5--------|
E|--------5-6-4--|
    . . . . . .

Repeat Riff 5B x4
Repeat Riff 2 x4
Repeat Riff 3 x4
Repeat Riff 6 x2
Repeat Riff 3 x4
Repeat Riff 1 x5
Repeat Fill 1 x1

Riff 7 x16
e|-------------------------|
B|-------------------------|
G|-------------------------|
D|-------------------------|
A|--4321-------------------|
E|-------0-0-0-3210-0-0-0--|

Riff 7B x8
e|-------------|
B|-------------|
G|-------------|
D|-------------|
A|--4321-------|
E|-------3210--|

Repeat Riff 7 x4
Repeat Riff 1 x2
            
Submit corrections

comments powered by Disqus
↑ Back to top | Cannibal Corpse Tabs for Living Dissection. Lyrics for acoustic guitar and electric guitar. Tablatures and chords are parodies/interpretations of the original songs. You may use it for private study, scholarship, research or language learning purposes only