» » »

Cannibal Corpse, Hammer Smashed Face Bass tabs (ver.5)

Artists:  A B C D E F G H I J K L M N O P Q R S T U V W X Y Z # 

Hammer Smashed Face Bass tabs (ver.5)

Cannibal Corpse Tabs
 Rating:
4/5 (4 votes)
Hammer Smashed Face lessons Tabs too difficult? Try these video lessons and learn fast
1
                (Live)

Intro
Gb|--------------|--------------|--------------|-----------------|
Db|--------------|--------------|--------------|---------555-444-|
Ab|--------------|--------------|--------------|-----------------|
Eb|-0--0--0--6\4-|-0--0--0--6\4-|-0--0--0--6\4-|-0-1-2-2---------|

Gb|---------------|---------------|---------------|---------------|
Db|---------------|---------------|---------------|-------555-444-|
Ab|---------------|---------------|---------------|---------------|
Eb|-00-0-00-0-6\4-|-00-0-00-0-6\4-|-00-0-00-0-6\4-|-0-1-2-2-------|

Gb|---------------|---------------|---------------|---------------|
Db|---------------|---------------|---------------|-------555-444-|
Ab|---------------|---------------|---------------|---------------|
Eb|-00-0-00-0-6\4-|-00-0-00-0-6\4-|-00-0-00-0-6\4-|-0-1-2-2-------|

Gb|--------------|--------------|--------------|-----------------|
Db|--------------|--------------|--------------|---------555-444-|
Ab|--------------|--------------|--------------|-----------------|
Eb|-0--0--0--6\4-|-0--0--0--6\4-|-0--0--0--6\4-|-0-1-2-2---------|

Solo/ Verse riff 1
Gb|-----------------|
Db|-----8-----------|
Ab|-7-----7---7-----|X4
Eb|---5-----6---0-6-|

Verse riff 2
Gb|-----------------|
Db|-----3-----------|
Ab|-2-----2-3-------|
Eb|---0-------2-0-1-|
    >

Verse riff 1
Gb|-----------------|
Db|-----8-----------|
Ab|-7-----7---7-----|X4
Eb|---5-----6---0-6-|

Pre-chorus
Gb|-----------------|
Db|-----------------|
Ab|-------1h(2)p1---|X3
Eb|-2-3-2---------0-|
          >

Gb|-----------------|
Db|-----------------|
Ab|-----------------|
Eb|-2-3-2-----3-2-0-|

Chorus
Gb|----------------------------|----------------------------|
Db|-2-5-2--1-4-1---------------|----------------------------|X2
Ab|---------------2-2-5--2-1---|-3-6-3--2-5-2------1--------|
Eb|--------------------------3-|---------------3-3----3-2-0-|

Gb|-------------------------------|
Db|-------------------------------|
Ab|-2-5-2--1-4-1--------1h(2)p1---|X4
Eb|---------------2-3-2---------0-|

Gb|----------------------------|----------------------------|
Db|-2-5-2--1-4-1---------------|----------------------------|X2
Ab|---------------2-2-5--2-1---|-3-6-3--2-5-2------1--------|
Eb|--------------------------3-|---------------3-3----3-2-0-|


Post-chorus
Gb|-----------------|
Db|-----------------|
Ab|-------1h(2)p1---|X3
Eb|-2-3-2---------0-|
          >

Gb|--------------|--------------|--------------|-----------------|
Db|--------------|--------------|--------------|---------555-444-|
Ab|--------------|--------------|--------------|-----------------|
Eb|-0--0--0--6\4-|-0--0--0--6\4-|-0--0--0--6\4-|-0-1-2-2---------|

Bridge X5 
Gb|-----------------|
Db|---------555-444-|
Ab|-----------------| X3
Eb|-0-1-2-2---------|

Gb|--------------|
Db|--------------|
Ab|--------------|
Eb|-0-0-2--0-0-2-|

Verse 2
Gb|-----------------|
Db|-----3-----------|
Ab|-2-----2-3-------| X4
Eb|---0-------2-0-1-|

Gb|-----------------|
Db|-----8-----------|
Ab|-7-----7---7-----|X4
Eb|---5-----6---0-6-|


Pre-chorus
Gb|-----------------|
Db|-----------------|
Ab|-------1h(2)p1---|X3
Eb|-2-3-2---------0-|
          >

Gb|-----------------|
Db|-----------------|
Ab|-----------------|
Eb|-2-3-2-----3-2-0-|

Chorus
Gb|----------------------------|----------------------------|
Db|-2-5-2--1-4-1---------------|----------------------------|X2
Ab|---------------2-2-5--2-1---|-3-6-3--2-5-2------1--------|
Eb|--------------------------3-|---------------3-3----3-2-0-|

Gb|-------------------------------|
Db|-------------------------------|
Ab|-2-5-2--1-4-1--------1h(2)p1---|X4
Eb|---------------2-3-2---------0-|

Gb|----------------------------|----------------------------|
Db|-2-5-2--1-4-1---------------|----------------------------|X2
Ab|---------------2-2-5--2-1---|-3-6-3--2-5-2------1--------|
Eb|--------------------------3-|---------------3-3----3-2-0-|

Post-chorus
Gb|-----------------|
Db|-----------------|
Ab|-------1h(2)p1---|X3
Eb|-2-3-2---------0-|
          >

Gb|--------------|--------------|--------------|
Db|--------------|--------------|--------------|
Ab|--------------|--------------|--------------|
Eb|-0--0--0--6\4-|-0--0--0--6\4-|-0--0--0--6\4-|

Bridge 2 (half time feel)
Gb|----------------|
Db|----------------|
Ab|-------1~-----6-|
Eb|-0-2-0----0-0---|

Outro 
Gb|---------------------|---------------------|
Db|-22225522-114--------|---------------------|
Ab|---------------2-1---|-33336633-225--------| X2
Eb|-------------------3-|---------------3-2-0-|

Gb|------------------------|
Db|------------------------|
Ab|-22225522-1111411-------| X4
Eb|------------------3-2-0-|

Gb|---------------------|---------------------|
Db|-22225522-114--------|---------------------|
Ab|---------------2-1---|-33336633-225--------| X2
Eb|-------------------3-|---------------3-2-0-|

Gb|-------------------------------|
Db|-------------------------------|
Ab|-2-5-2--1-4-1--------1h(2)p1---|X4
Eb|---------------2-3-2---------0-|

Gb|-----------------|
Db|-----------------|
Ab|-------1h(2)p1---|X3
Eb|-2-3-2---------0-|
          >

Gb|-----------------|
Db|-----------------|
Ab|-----------------|
Eb|-0--0--0--6\4--0-|

| /  slide up
| \  slide down
| h  hammer-on
| p  pull-off
| ~  vibrato
| +  harmonic
| x  Mute note
|( ) Ghost note
| >  Accented note
            
Submit corrections

comments powered by Disqus
↑ Back to top | Cannibal Corpse Bass for Hammer Smashed Face. Lyrics for acoustic guitar and electric guitar. 1 Tablatures and chords are parodies/interpretations of the original songs. You may use it for private study, scholarship, research or language learning purposes only