» » »

Cannibal Corpse, Hammer Smashed Face Bass tabs (ver.3)

Artists:  A B C D E F G H I J K L M N O P Q R S T U V W X Y Z # 

Hammer Smashed Face Bass tabs (ver.3)

Cannibal Corpse Tabs
Rating:
0/5 (0 votes)
Hammer Smashed Face lessons Tabs too difficult? Try these video lessons and learn fast
                intro x3
A                                B
|--------------------------------|-------|
|--------------------------------|-------|
|--------------------------------|----4-3|
|1-1-1-1/31-1-1-1/31-1-1-1/31----|0-1----|

just gitar for one riff

bass solo (tomb of the mutilated) x4 / bass solo (live) x4
|-----------------|             |----------------|
|-------3---------|             |7-----4---------|
|-2---2---3---3---|             |--6-5-------5-4-|
|---0-------1---0-|             |--------5-4-----|

riff 1 x4
|----------------|
|7-----4---------|
|--6-5-------5-4-|
|--------5-4-----|

riff 2 x4
|----------------|
|5-----2---------|
|--4-3-------3-2-|
|--------3-2-----|

riff 2 x4

riff 3 x8
|-----------|
|-----------|
|-------3---|
|4--5-4-----|

riff 4 x2
|-------------------------------------------------|
|7h10p7-6h9p6-------------5h8p5-4h7p4-------------|
|-------------0-0-5-0-0-4-------------0-0-4-0-0-3-|
|-------------------------------------------------|

riff 5 x2
|--------------------------------------------|
|5h8p8-4h7p4-------------5h8p5-5h8p5---------|
|------------0-0-0-4-----------------0-0-0-4-|
|--------------------------------------------|

riff 4 x2

riff 3 x8

intro A

intro B x 16

riff 2 x4

riff 1 x4

riff 3 x8

riff 4 x2

riff 5 x2

intro A

intro B slowed down x12

riff 4 x2 fast!

riff 5 x2 fast!

riff 3 x8

outro
|----------|
|----------|
|----------|
|1-1-1/31--|
            
Submit corrections

comments powered by Disqus
↑ Back to top | Cannibal Corpse Bass for Hammer Smashed Face. Lyrics for acoustic guitar and electric guitar. Tablatures and chords are parodies/interpretations of the original songs. You may use it for private study, scholarship, research or language learning purposes only