>
 >
Gallery Of Suicide

Gallery Of Suicide Guitar Tabs

Cannibal Corpse - Gallery Of Suicide chords, tabs, tablatures, lyrics

Guitar lessons | Add/correct | Request | Top 50 tabs Artists:  A B C D E F G H I J K L M N O P Q R S T U V W X Y Z 0-9

Gallery Of Suicide Guitar Tabs – Cannibal Corpse

CD, Sheet music, Poster

Do you like Gallery Of Suicide? Share with your friends now
Bass TabsTabs
Gallery of Suicide by Cannibal Corpse
Originally played on a 7 string tuned to Bb 


Intro Riff play this 3x then on the 4th play this
Bb|--------------------------------|------------------ 
Gb|--------7-------10----------6---|----------------8
Db|--------7-------10----------6---|--------11------10
Ab|--------9-------12----------8---|--------9-------8
Eb|--7-7---7---7---10--10\\\7--6---|--7-7---9---7---8
 

Play Riff A2 2x Play Riff A1 3x Play Riff A2 2x Riff B (doubletime, heavy palm muting) 

Db|--LGtr----------|----------------|----------------|----------------|- 
Ab|3333--------5555|4444--------6666|3333--------5555|4444--------6666|- 
Eb|----44441111----|----33332222----|----44441111----|----33332222----|- 
PM|................|................|................|................| 

Db|--RGtr----------|----------------|----------------|----------------|- 
Ab|3333--------5555|4444--------6666|5555--------5555|4444--------6666|- 
Eb|----44441111----|----33332222----|----44441111----|----33332222----|-  
PM ................ ................ ................ ................ 

Db-|----------------|----------------|----------------|----------------| 
Ab-|3333--------5555|4444--------6666|3333--------5555|4444--------6666| 
Eb-|----44441111----|----33332222----|----44441111----|----33332222----| 
PM |................|................|................|................| 

Db-|----------------|----------------|----------------|----------------| 
Ab-|3333--------5555|77777-------6666|8888--------5555|77777777----6~~-| 
Eb-|----44446666----|-----6666888----|----44446666----|--------66666~~-| 
 PM ................ ................ ................ ................ 

Bb|-----------------------------------|--------------------------------| 
Gb|-----------14"-----10"-----11"-----|6"------7"------12"-----11\\\\\-| 
Db|12:--------------------------------|--------------------------------| 
Ab|-8:--------12"-----8"------9"------|4"------5"------10"-----9\\\\\\-| 
Eb|-----------------------------------|--------------------------------|  

  
Bb|-----------------------------------|--------------------------------| 
Gb|-----------------------------------|--------------------------------| 
Db|12:--------14"-----10"-----11"-----|6"------7"------13"-----12\\\\\-| 
Ab|-8:--------------------------------|--------------------------------| 
Eb|-----------12"-----8"------9"------|4"------5"------11"-----10\\\\\-| 
 
But with one guitar this sounds close: 
Bb|-----------------------------------|--------------------------------| 
Gb|-----------14"-----10"-----11"-----|6"------7"------12"-----11\\\\\-|
Db|12:--------14"-----10"-----11"-----|6"------7"------13"-----12\\\\\-| 
Ab|-8:--------12"-----8"------9"------|4"------5"------10"-----9\\\\\\-| 
Eb|-----------------------------------|--------------------------------| 


Play Riff C 4x Riff D (actually varies a lot, but it takes too long to figure out) 
Db|---------6----------------|------7----------------|------6---------------| 
Ab|12:------6----------------|------5----------------|------6---------------| 
Eb|-8:7-7-7-4----7-7-7-10p7-7|7-7-7-5----7-7-7-10p7-7|7-7-7-4---7-7-7-10p7-7| 


Db|---------6----------------|------7----------------|------6---------------| 
Ab|12:------6----------7\\---|------5----------7//---|------6----------7\6-6| 
Eb|-8:7-7-7-4----7-7-7-5\\---|7-7-7-5----7-7-7-5//---|7-7-7-4----7-7-7-5\4-4|  


Db|-----------------------|------6----------------|------7----------------| 
Ab|------9-------7--4//7--|------6----------------|------5----------------| 
Eb|7-7-7-7---7-7-5--2//5--|7-7-7-4----7-7-7-10p7-7|7-7-7-5----7-7-7-10p7-7| 
 
 
Db|------6----------------|------6----------------|------7----------------| 
Ab|------6--------7--4//7-|------6----------7\6---|------5----------6\\---| 
Eb|7-7-7-4----7-7-5--2//5-|7-7-7-4----7-7-7-5\4---|7-7-7-5----7-7-7-4\\---| 
 

Db|------6----------------|------------------------| 
Ab|------6----------------|------9------9--12--8---| 
Eb|7-7-7-4----7-7-7-10p7-7|7-7-7-7----7-7--10--6---| 


Db|------6----------------|------------------------| 
Ab|------6----------6//---|------9------9--12--8---| 
Eb|7-7-7-4----7-7-7-4//---|7-7-7-7----7-7--10--6---| 


Play Riff D Play Riff C 4x Play Riff D Then play (halftime drums): 
Db|------------------------|------------------------|------------6----------| 
Ab|9-9-9---9-9-8-8-8---8-8-|9-9-9---9-9-8-8-8---8-8-|9-9-9---9-9-------5----| 
Eb|------8-----------7-----|------8-----------7-----|------8-------4-4---4-4| 
PM| . . . . . . . . | . . . . . . . . | . . . . . . . . | 

Db|------------------------|------------------------|-----------------------| 
Ab|9-9-9---9-9-8-8-8---8-8-|9-9-9---9-9-8-8-8---8-8-|9-9-9---9-9-8-8-8---8-8| 
Eb|------8-----------7-----|------8-----------7-----|------8-----------7----| 
PM . . . . . . . . . . . . . . . . . . . . . . . . 

Db|7-----------6-----------|7-----------6-----------|7-----------11---------| 
Ab|------6-----------5-----|------6-----------5-----|------6-----------10---| 
Eb|--5-5---5-5---4-4---4-4-|--5-5---5-5---4-4---4-4-|--5-5---5-5---9-9---9-9| 
PM| . . . . . . . . | . . . . . . . . | . . . . . . . . | 

Db|------------------------|7-----------------------|7----------------------| 
Ab|9-9-9---9-9-8-8-8---8-8-|------6-----9-9-9---9-9-|------6-----9-9-9---9-9| 
Eb|------8-----------7-----|--5-5---5-5-------8-----|--5-5---5-5-------8----| 
PM . . . . . . . . . . . . . . . . . . . . . . . . 

Db|------------------------|10----------7-----------|8-----------5----------| 
Ab|9-9-9---9-9--1212---1212|------9-----------6-----|------7-----------4----| 
Eb|------8-----------11----|--8-8---8-8---5-5---5-5-|--6-6---6-6---3-3---3-3|  
PM| . . . . . . . . | . . . . . . . . | . . . . . . . . | 

Db|7-----------------------|7-----------------------|8----------------------| 
Ab|------6-----9-9-9---9-9-|------6-----9-9-9---9-9-|------7----101010--1010| 
Eb|--5-5---5-5-------8-----|--5-5---5-5-------8-----|--6-6---6-6-------9----| 
PM . . . . . . . . . . . . . . . . . . . . . . . . 

Bb|------------------------|--------------------------|---------------------| 
Gb|9-----------7-----------|--------------------------|---------------------| 
Db|8-----------6-----6-----|12------------------------|11----------12-------| 
Ab|------7-----------5-----|11-1111-1111-131313---1313|-----10---------<11\\| 
Eb|--6-6---6-6---4-4---4-4-|-------10-----------12----|--9-9---9-9--1010----|  
PM| . . . . . . . . | . . . . . . . . | . . . . . . . . | 

Db|8-----------------------|8-----------------------|8----------------------| 
Ab|------7-----101010--1010|------7-----101010--1010|------7-----101010-----| 
Eb|--6-6---6-6-------9-----|--6-6---6-6-------9-----|--6-6---6-6-------<9~\\| 
PM . . . . . . . . . . . . . . . . . . . . . .





Comments


Popular Cannibal Corpse tabs & chords
Disposal Of The Body 1 Bass Tabs
I Cum Blood Bass Tabs
A Cauldron Of Hate 3 Tabs
Bloody Chunks Tabs
Evisceration Plague 3 Tabs
Frantic Disembowlement Tabs
Hammer Smashed Face ( Live) Tabs
Intestinal Crank Tabs
Orgasm Through Torture Tabs
Rotting Head Tabs


Song lyrics



↑ Back to top | Tablatures and chords are parodies/interpretations of the original songs. You may use it for private study, scholarship, research or language learning purposes only
© 2014 AZChords.com Contact us | Privacy policy | DMCA | Add/correct tabs | Request tabs | Top 50 tabs