» » »

Cannibal Corpse, Encased In Concrete Bass tabs (ver.1)

Artists:  A B C D E F G H I J K L M N O P Q R S T U V W X Y Z # 

Encased In Concrete Bass tabs (ver.1)

Cannibal Corpse Tabs
 Rating:
4/5 (4 votes)
Encased In Concrete lessons Tabs too difficult? Try these video lessons and learn fast
                Band: Cannibal Corpse
Bassist: Alex Webster
Tuning: Half-Step Down

Intro

F#|----------|
C#|----------|
G#|----------| x4
D#|-5-4------|
A#|------1-0-|

Guitar solo

F#|---------------------------|-----------------------------|
C#|---------------------------|-----------------------------|
G#|---------------------------|-----------------------------| x4
D#|-5-4-----------------------|-5-4---------------5p4-------|
A#|-----0-0-0-0-1-0-0-0-0-0-0-|-----0-0-0-0-1-0-0-----0-0-0-|

F#|---------------|
C#|---------------|
G#|---------------| x3
D#|-----7-----5p4-|
A#|-0-0---0-0-----|

F#|-----------------|
C#|-----------------|
G#|-----------------|
D#|-----7-----------|
A#|-0-0---0-3-1-0-0-|

Verse 1

F#|-------------------------------------|-----------------------------|
C#|-------------------------------------|-9h11\6-9h11\6-9h11\6-9h11\6-|
G#|-------------------------------------|-----------------------------| x3
D#|-10-7-10-7-7-4-7-4-10-7-10-7-7-4-7-4-|-----------------------------|
A#|-------------------------------------|-----------------------------|

F#|-------------------------------------|
C#|-------------------------------------|
G#|-------------------------------------|
D#|-10-7-10-7-7-4-7-4-10-7-10-7-7-4-7-4-|
A#|-------------------------------------|

F#|-------------------------|-------------------|
C#|-------------------------|-------------------|
G#|-------------------------|---------2-1-------| x2
D#|-4-3-----0-1-------------|-4-3---------3-4-1-|
A#|-----0-0-----000-000-000-|-----0-0-----------|

Chorus

F#|-----------------|-----------------|
C#|-----------------|-----------------|
G#|-----------------|-------2-1-------| x3
D#|-4-3---0-1-------|-4-3-------3-4-1-|
A#|-----0-----2-3-0-|-----0-----------|

F#|-----------------|-------------|
C#|-----------------|-------------|
G#|-----------------|-------2-1---|
D#|-4-3---0-1-------|-4-3-------3-|
A#|-----0-----2-3-0-|-----0-------|

F#|------------------------------|----------------------------|
C#|------------------------------|----------------------------|
G#|------------------------------|----------------------------|
D#|--------3-3-3---4-3-0---------|--------3-3-3---4-3-0-------|
A#|-0-0000-------0-------1-0-1-0-|-0-0000-------0-------1-0-1-|
  |                                                                x2
F#|--------------------------------------------------------------|
C#|--------------------------------------------------------------|
G#|------------------------------------------------------2---5---|
D#|--------3-3-3---4-3-0---------1-----------3-------------------|
A#|-0-0000-------0-------1-0-1-0---0-1-0-1-0---0-1-0-1-0---0---0-|

Verse 2

F#|-------------------------------------|-----------------|
C#|-------------------------------------|-----------------|
G#|-------------------------------------|-----------------|
D#|-10-7-10-7-7-4-7-4-10-7-10-7-7-4-7-4-|-4-3---0-1-------|
A#|-------------------------------------|-----0-----2-3-0-|
  |                                                         x2
F#|-----------------------------|-----------------|
C#|-9h11\6-9h11\6-9h11\6-9h11\6-|-----------------|
G#|-----------------------------|-------2-1-------|
D#|-----------------------------|-4-3-------3-4-1-|
A#|-----------------------------|-----0-----------|

F#|-----------------------------------------------------|
C#|-----------------------------------------------------|
G#|-----5---------------------------------------------5-|
D#|-----------------------------------------------------|
A#|-0-0---0-0-7-7-7-6-6-6-3-3-3-7-7-7-7-7-6-6-6-6-6-3---|

F#|-----------------------------------------------------|
C#|-----------------------------------------------------|
G#|-----5-----------------------------------------------|
D#|-----------------------------------------------------|
A#|-0-0---0-0-7-7-7-6-6-6-3-3-3-6-6-6-6-6-5-5-5-5-5-3-0-|

F#|-----------------------------------------------------|
C#|-----------------------------------------------------|
G#|-----5---------------------------------------------5-|
D#|-----------------------------------------------------|
A#|-0-0---0-0-7-7-7-6-6-6-3-3-3-7-7-7-7-7-6-6-6-6-6-3---|

F#|-------------------------------------|
C#|-------------------------------------|
G#|-----5-------------------------------|
D#|-------------------------------------|
A#|-0-0---0-0-7-7-7-6-6-6-3-3-3-6--5--0-|

F#|----------------------------|
C#|----------------------------|
G#|----------------------------|
D#|--------3-3-3---4-3-0-------|
A#|-0-0000-------0-------1-0-1-|
  |
F#|--------------------------------------------------------------|
C#|--------------------------------------------------------------|
G#|------------------------------------------------------2---5---|
D#|--------3-3-3---4-3-0---------1-----------3-------------------|
A#|-0-0000-------0-------1-0-1-0---0-1-0-1-0---0-1-0-1-0---0---0-|

F#|------------------------------|----------------------------|
C#|------------------------------|----------------------------|
G#|------------------------------|----------------------------|
D#|--------3-3-3---4-3-0---------|--------3-3-3---4-3-0-------|
A#|-0-0000-------0-------1-0-1-0-|-0-0000-------0-------1-0-1-|
  |
F#|--------------------------------------------------------------|
C#|--------------------------------------------------------------|
G#|------------------------------------------------------2---5---|
D#|--------3-3-3---4-3-0---------1-----------3-------------------|
A#|-0-0000-------0-------1-0-1-0---0-1-0-1-0---0-1-0-1-0---0---0-|

F#|---------|
C#|---------|
G#|---------|
D#|---------|
A#|-0-0-0-0-|

F#|-------------------|
C#|-------------------|
G#|---------2-1-------|
D#|-4-3---------3-4-1-|
A#|-----0-0-----------|

F#|-------------------------|-------------------|
C#|-------------------------|-------------------|
G#|-------------------------|---------2-1-------|
D#|-4-3-----0-1-------------|-4-3---------3-4-1-|
A#|-----0-0-----000-000-000-|-----0-0-----------|

Chorus

F#|-----------------|-----------------|
C#|-----------------|-----------------|
G#|-----------------|-------2-1-------| x3
D#|-4-3---0-1-------|-4-3-------3-4-1-|
A#|-----0-----2-3-0-|-----0-----------|

F#|-----------------|-------------|
C#|-----------------|-------------|
G#|-----------------|-------2-1---|
D#|-4-3---0-1-------|-4-3-------3-|
A#|-----0-----2-3-0-|-----0-------|

F#|-----------------------------------------------------|
C#|-----------------------------------------------------|
G#|-----5---------------------------------------------5-|
D#|-----------------------------------------------------|
A#|-0-0---0-0-7-7-7-6-6-6-3-3-3-7-7-7-7-7-6-6-6-6-6-3---|

F#|-----------------------------------------------------|
C#|-----------------------------------------------------|
G#|-----5-----------------------------------------------|
D#|-----------------------------------------------------|
A#|-0-0---0-0-7-7-7-6-6-6-3-3-3-6-6-6-6-6-5-5-5-5-5-3-0-|

F#|-----------------------------------------------------|
C#|-----------------------------------------------------|
G#|-----5---------------------------------------------5-|
D#|-----------------------------------------------------|
A#|-0-0---0-0-7-7-7-6-6-6-3-3-3-7-7-7-7-7-6-6-6-6-6-3---|

F#|----------------------------------|
C#|----------------------------------|
G#|-----5----------------------------|
D#|----------------------------------|
A#|-0-0---0-0-7-7-7-6-6-6-3-3-3-6--5-|

F#|----------|
C#|----------|
G#|----------| x2
D#|-5-4------|
A#|------1-0-|

Outro

F#|---------------------------|-----------------------------|
C#|---------------------------|-----------------------------|
G#|---------------------------|-----------------------------| x3
D#|-5-4-----------------------|-5-4---------------5p4-------|
A#|-----0-0-0-0-1-0-0-0-0-0-0-|-----0-0-0-0-1-0-0-----0-0-0-|

F#|---------------|
C#|---------------|
G#|---------------| x3
D#|-----7-----5p4-|
A#|-0-0---0-0-----|

F#|-----------------|
C#|-----------------|
G#|-----------------|
D#|-----7-----------|
A#|-0-0---0-3-1-0-0-|

Legend
------
| \ = slide down
| h = hammer-on
| p = pull-off
            
Submit corrections

comments powered by Disqus
↑ Back to top | Cannibal Corpse Bass for Encased In Concrete. Lyrics for acoustic guitar and electric guitar. Tablatures and chords are parodies/interpretations of the original songs. You may use it for private study, scholarship, research or language learning purposes only