» » »

Cannibal Corpse, Eaten From Inside Tabs (ver.1)

Artists:  A B C D E F G H I J K L M N O P Q R S T U V W X Y Z # 

Eaten From Inside Tabs (ver.1)

Cannibal Corpse Tabs
 Rating:
4/5 (4 votes)
Eaten From Inside lessons Tabs too difficult? Try these video lessons and learn fast
                Tune your guitar to Bb - flat or use 7string guitar.
Riff1(x8)                         Riff2a(x2)
---------------------------------|--------------------------------------------
---------------------------------|--------------------------------------------
---------------------------------|--------------------------------------------
---------------------------------|------------------------5-0-----------------
-2222-------------2222---------4-|------------4-0-2-0-------------------------
-----44443333-4-------44443333---|3-3-3-3-3-0---------3-0-----3-3-3-3---------

Riff2b(under solo)(x8)+(vocal)(x2)  Riff3a(x2)
-----------------------------------|------------------------------------------
-----------------------------------|------------------------------------------
-----------------------------------|------------------------------------------
---------------------4-0-----------|------------------------------------------
---------4-0-2-0-----------------4-|-----------------------------------5t8----
-3-3-3-3---------3-0-----3-3-3-3---|3-3-3-3-3-3-4t7----3-3-3-3-3-3-4t7--------

Riff3b(x4)                                    Riff4(x8)
---------------------------------------------|--------------|
---------------------------------------------|--------------|
---------------------------------------------|--------------|
---------------------------------------------|--------------|
-------------6-9-9-------------6-9-9-9-12-12-|----3-----5-4-|
-3-3-3-3-3-3-4/7-7-3-3-3-3-3-3-4/7-7-7/10-10-|3-5---5-3-----|
Play Riff1(x4)
Play Riff2(x6)
Play Riff3a(x2)
Play Riff3b(x4)

Riff5(x3)(under solo)
-----------------------------------------------------|
-----------------------------------------------------|
-----------------------------------------------------|
-----------------------5-6---------------------------|
-55555555-5-4-55555555-----55555555-5-4-55555555-----|
-33333333-----33333333-----33333333-----33333333-4-5-|

 Riff6a
  left guitar
-|---------------------------|
-|---------------------------|
-|---------------------------|
-|5-6-5--4-5-4--3-4-3--2-3-2-|
-|---------------------------|
-|---------------------------|
 |                           |
 |right guitar               |
-|---------------------------|
-|---------------------------|
-|---------------------------|
-|8-9-8--7-8-7--6-7-6--5-6-5-|
-|---------------------------|
-|---------------------------|

  Play Riff5(x2) (under solo)
  Riff6b
  left guitar
-|-------------------------------------------------------|
-|-------------------------------------------------------|
-|-------------------------------------------------------|
-|5-6-5--4-5-4--3-4-3--2-3-2-----------------------------|
-|----------------------------6-7-6--5-6-5--4-5-4--3-4-3-|
-|-------------------------------------------------------|
 |                                                       |
 |right guitar                                           |
-|-------------------------------------------------------|
-|-------------------------------------------------------|
-|-------------------------------------------------------|
-|8-9-8--7-8-7--6-7-6--5-6-5-----------------------------|
-|----------------------------910-9--8-9-8--6-7-6--5-6-5-|
-|-------------------------------------------------------|
Play Riff2b(x2)
Play Riff3a(x2)
Play Riff3b(x4)
End Chord
-|------|
-|------|
-|------|
-|10-10-|
-|8--8--|
-|------|
            
Submit corrections

comments powered by Disqus
↑ Back to top | Cannibal Corpse Tabs for Eaten From Inside. Lyrics for acoustic guitar and electric guitar. Tablatures and chords are parodies/interpretations of the original songs. You may use it for private study, scholarship, research or language learning purposes only