» » »

Cannibal Corpse, Dismembered And Molested Tabs (ver.1)

Artists:  A B C D E F G H I J K L M N O P Q R S T U V W X Y Z # 

Dismembered And Molested Tabs (ver.1)

Cannibal Corpse Tabs
 Rating:
4/5 (4 votes)
Dismembered And Molested lessons Tabs too difficult? Try these video lessons and learn fast
                Cannibal Corpse - Dismembered and Molested (1998)

. - palm mute
h - hammer on
p - pull off
tr - trill
/ - slide up
\ - slide down
a.h - artificial harmonic

Tuning in Eb

riff 1      x4
|------------|
|------------|
|------------| GTRI+GTRII
|------------|
|6---3---3---|
|6---3---3---|
 .

riff 2
|----------------|----------------|----------------|----------------|
|----------------|----------------|----------------|----------------|
|----------------|----------------|----------------|----------------| GTRI
|4---4---4---4---|4---4---4---4---|4---4---4---4---|4---4---4---4---|
|3---3---3---3---|3---3---3---3---|3---3---3---3---|3---3---3---3---|
|3---3---3---3---|3---3---3---3---|3---3---3---3---|3---3---3---3---|
|
|
|----------------|----------------|------------------|------------------|
|----------------|----------------|------------------|------------------|
|----------------|----------------|------------------|------------------| GTRII (tapping)
|--------7474----|7474----7474----|74741041047474----|74741041047474----|
|63639393----9393|----9393----9393|--------------9393|--------------9393|
|----------------|----------------|------------------|------------------|


riff 3                                          x4
|-------------|-------------|------------------|
|-------------|-------------|------------------|
|-------------|-------------|------------------| GTRI+GTRII
|-------------|-------------|------------------|
|--------6h7p6|--------6h7p6|----------9---9---|
|00000000-----|00000000-----|0000008---9---9---|
 ........      ........      .......

riff 4
|------------|------------|------------|------------|------------|------------|
|------------|------------|------------|------------|------------|------------|
|------------|------------|------------|------------|------------|------------| GTRI+GTRII
|------------|------------|------------|------------|------------|6-----5-----|
|3-----------|6-----10----|5-----9-----|4-----------|3-----2-----|4-----3-----|
|1-----000000|4-----8-----|3-----7-----|2-----000000|1-----0-----|------------|
       ......                                 ......

continue riff 4
|------------|------------|------------|------------|------------|------------|
|------------|------------|------------|------------|------------|------------|
|------------|------------|------------|------------|------------|------------| GTRI+GTRII
|------------|------------|------------|------------|------------|------------|
|5-----------|6-----5-----|6-----8-----|5-----------|6-----3-----|6-----8-----|
|3-----000000|4-----7-----|------6-----|3-----000000|4-----1-----|3-----6-----|
       ......                                 ......

riff 2
|----------------|----------------|----------------|----------------|
|----------------|----------------|----------------|----------------|
|----------------|----------------|----------------|----------------| GTRI
|4---4---4---4---|4---4---4---4---|4---4---4---4---|4---4---4---4---|
|3---3---3---3---|3---3---3---3---|3---3---3---3---|3---3---3---3---|
|3---3---3---3---|3---3---3---3---|3---3---3---3---|3---3---3---3---|
|
|
|----------------|----------------|------------------|------------------|
|----------------|----------------|------------------|------------------|
|----------------|----------------|------------------|------------------| GTRII (tapping)
|--------7474----|7474----7474----|74741041047474----|74741041047474----|
|63639393----9393|----9393----9393|--------------9393|--------------9393|
|----------------|----------------|------------------|------------------|


riff 3                                          x4
|-------------|-------------|------------------|
|-------------|-------------|------------------|
|-------------|-------------|------------------| GTRI+GTRII
|-------------|-------------|------------------|
|--------6h7p6|--------6h7p6|----------9---9---|
|00000000-----|00000000-----|0000008---9---9---|
 ........      ........      .......

riff 4a
|------------|------------|------------|------------|----------------|
|------------|------------|------------|------------|----------------|
|------------|------------|------------|------------|----------------| GTRI+GTRII
|------------|------------|------------|------------|------------6---|
|3-----------|6-----10----|5-----9-----|4-----------|3-----2-----4---|
|1-----000000|4-----8-----|3-----7-----|2-----000000|1-----0---------|
       ......                                 ......

riff 5                                                           x2
|----------------|----------------|----------------|------------|
|----------------|----------------|----------------|------------|
|----------------|----------------|----------------|------------| GTRI
|------4444445555|55----44--------|----444444555555|4-----------|
|444444----------|--6666--33336644|4444------------|--6-3-6-3-5-|
|----------------|----------------|----------------|------------|
|
|
|----------------|----------------|----------------|------------|
|----------------|----------------|----------------|------------|
|----------------|----------------|----------------|------------| GTRII
|------7777778888|88----77--------|----777777888888|7-----------|
|777777----------|--9999--66666677|7777------------|--9-6-9-6-8-|
|----------------|----------------|----------------|------------|


riff 2
|----------------|----------------|----------------|----------------|
|----------------|----------------|----------------|----------------|
|----------------|----------------|----------------|----------------| GTRI
|4---4---4---4---|4---4---4---4---|4---4---4---4---|4---4---4---4---|
|3---3---3---3---|3---3---3---3---|3---3---3---3---|3---3---3---3---|
|3---3---3---3---|3---3---3---3---|3---3---3---3---|3---3---3---3---|
|
|
|----------------|----------------|------------------|------------------|
|----------------|----------------|------------------|------------------|
|----------------|----------------|------------------|------------------| GTRII (tapping)
|--------7474----|7474----7474----|74741041047474----|74741041047474----|
|63639393----9393|----9393----9393|--------------9393|--------------9393|
|----------------|----------------|------------------|------------------|


riff 6
|----------------|----------------|------------------|------------------|
|----------------|----------------|------------------|------------------|
|--------7474----|7474----7474----|74741041047474----|74741041047474----| GTRI (tapping)
|63639393----9393|----9393----9393|--------------9393|--------------9393|
|----------------|----------------|------------------|------------------|
|----------------|----------------|------------------|------------------|
|
|
|--------------------|------------------------|------------------------|------------------------|
|--------------------|------------------------|------------------------|------------------------|

GTRII (tapping)
|9696126126----126126|------126126------126126|------------------126126|------------------126126|
|--------------------|------------------------|------------------------|------------------------|
|--------------------|------------------------|------------------------|------------------------|


riff 6a
|----------------|----------------|----------------|----------------|
|----------------|----------------|----------------|----------------| GTRI (tapping)
|----------------|----------------|----------------|----------------|
|----------------|----------------|----------------|----------------|
|----------------|----------------|5555555555555555|----------------|
|7777777777777777|7777777777777777|----------------|4444444444444444|
|................ ................ ................ ................
|
|----------------|----------------|------------------|1211109--------------|
|----------------|----------------|------------------|-------111098--------|
|--------7474----|7474----7474----|74741041047474----|-------------9876----| GTRII (tapping)
|63639393----9393|----9393----9393|--------------9393|-----------------8765|
|----------------|----------------|------------------|---------------------|
|----------------|----------------|------------------|---------------------|


riff 7                                              x3
|----------------|----------------|----------------|
|----------------|----------------|----------------|
|----------------|---a.h----------|----------------| GTRI
|----------------|----5-----------|----4---4---4---|
|----------------|----------------|----0---0---0---|
|0000006666667777|775-----00000000|0000------------|
|....................     ........ ....
|
|----------------|----------------|----------------|
|----------------|----------------|----------------|
|----------------|---a.h----------|----------------| GTRII
|----------------|----5-----------|----4---4---4---|
|----------------|--------5---5---|5---0---0---0---|
|0000006666667777|775-----0---0---|0---------------|
 ....................

riff 7a
|----------------|----------------|----------------|
|----------------|----------------|----------------|
|----------------|---a.h----------|----------------| GTRI
|----------------|----5-----------|----------------|
|----------------|----------------|----00005---5---|
|0000006666667777|775-----00000000|0000----5---5---|
|....................     ........ .........   .
|
|----------------|----------------|----------------|
|----------------|----------------|----------------|
|----------------|---a.h----------|----------------| GTRII
|----------------|----5-----------|----------------|
|----------------|--------5---5---|5---5---5---5---|
|0000006666667777|775-----0---0---|0---0---5---5---|
 ....................                      .   .

riff 3                                          x2
|-------------|-------------|------------------|
|-------------|-------------|------------------|
|-------------|-------------|------------------| GTRI+GTRII
|-------------|-------------|------------------|
|--------6h7p6|--------6h7p6|----------9---9---|
|00000000-----|00000000-----|0000008---9---9---|
 ........      ........      .......

riff 4
|------------|------------|------------|------------|------------|------------|
|------------|------------|------------|------------|------------|------------|
|------------|------------|------------|------------|------------|------------| GTRI+GTRII
|------------|------------|------------|------------|------------|6-----5-----|
|3-----------|6-----10----|5-----9-----|4-----------|3-----2-----|4-----3-----|
|1-----000000|4-----8-----|3-----7-----|2-----000000|1-----0-----|------------|
       ......                                 ......

continue riff 4
|------------|------------|------------|------------|------------|------------|
|------------|------------|------------|------------|------------|------------|
|------------|------------|------------|------------|------------|------------| GTRI+GTRII
|------------|------------|------------|------------|------------|------------|
|5-----------|6-----5-----|6-----8-----|5-----------|6-----3-----|6-----8-----|
|3-----000000|4-----7-----|------6-----|3-----000000|4-----1-----|3-----6-----|
       ......                                 ......

riff 1a     x3
|------------|------------|
|------------|------------|
|------------|------------| GTRI+GTRII
|------------|------------|
|6---3---3---|6---5---4---|
|6---3---3---|6---5---4---|
 .            .   .   .
            
Submit corrections

comments powered by Disqus
↑ Back to top | Cannibal Corpse Tabs for Dismembered And Molested. Lyrics for acoustic guitar and electric guitar. Tablatures and chords are parodies/interpretations of the original songs. You may use it for private study, scholarship, research or language learning purposes only