>
 >
Devoured By Vermin

Devoured By Vermin Guitar Tabs

Cannibal Corpse - Devoured By Vermin chords, tabs, tablatures, lyrics

Guitar lessons | Add/correct | Request | Top 50 tabs Artists:  A B C D E F G H I J K L M N O P Q R S T U V W X Y Z 0-9

Devoured By Vermin Guitar Tabs – Cannibal Corpse

CD, Sheet music, Poster

Do you like Devoured By Vermin? Share with your friends now
Tabs
Riff 1a
|---------------------------------------------------------|
|---------------------------------------------------------|
|--------------------------------------------6/8-8-8\7-7--|
|-----------5--5---------------5--5-----------------------|
|-----------3--3---------------3--3----------3/6-6-6\5-5--|
|-2222222222-22-222222222222222-22-2222222222-------------|
pm.......... .. ............... .. ..........


Riff 1b
|------------------------------------------------------------|
|------------------------------------------------------------|
|------------------------------6/8-8-8\7-7-7/11-11-11\10-10--|
|-----------5--5---------------------------------------------|
|-----------3--3---------------3/6-6-6\5-5-5/-9--9--9\-8--8--|
|-2222222222-22-222222222222222------------------------------|
pm.......... .. ...............


Fill 1 (Having a bit of trouble figuring this out. Any help would be great!)
|---------------------|
|---------------------|
|---------------------|
|----??????????????---|
|----??????????????---|
|----??????????????---|
pm


Riff 2
|-----------------------|
|-----------------------|
|-----------------------|
|-----------------------|
|--------------444443~--|
|-22222222-5-2----------|
pm........ . .


Fill 2
|-------------|
|-------------|
|-------------|
|-------------|
|-----/9------|
|-/5------/7--|


Riff 3a
|----------------------------------------------------------------|
|----------------------------------------------------------------|
|----------------------------------------------------------------|
|----------------------------------------------------------------|
|-------------------------777776~--------------------------4--4--|
|-3-0-5-0-6-0-5-0-6-0-5-0----------3-0-5-0-6-0-5-0-6-0-5-0-2--2--|
pm. . . . . . . . . . . .          . . . . . . . . . . . .


Riff 3b
|----------------------------------------------------------------------|
|----------------------------------------------------------------------|
|--------------------------------------------------/8\7/9\8/10\9/11\10-|
|----------------------------------------------------------------------|
|-------------------------777776~------------------/6\5/7\6/-8\7/-9\-8-|
|-3-0-5-0-6-0-5-0-6-0-5-0----------3-0-5-0-6-0-5-0--*------------------|
pm. . . . . . . . . . . .          . . . . . . . .

*I couldn't hear this part too well on the cd so I created this little part
instead
sounds cool with it if you time it correctly.


Fill 3
|----------------------------------------------------------|
|----------------------------------------------------------|
|----------------------------------------------------------| Gtr.
|----------------------------------------------------------|  1
|----------------------------------------------------------|
|-2-2-2-2-2-2-2-2-2-2-2-2-2-2-2-2-2-2-2-2-2-2-2-2-2-2-2-2--|
pm. . . . . . . . . . . . . . . . . . . . . . . . . . . .  |
|                                                          |
|----------------------------------------------------------|
|----------------------------------------------------------|
|----------------------------------------------------------| Gtr.
|----------------------------------------------------------|  2
|---------------------------------4-------4-------4--------|
|---------------------------------2-------2-------2--------|


Riff 4a
|------------------------------------------------|
|------------------------------------------------|
|-----------------------------------6/8-8-8-8\7--|
|------------------------------------------------|
|-------------3--3--5-2-4-4-4-4-4-4-3/6-6-6-6\5--|
|-2-3-5-2-3-2--2--2-----2-2-2-2-2-2--------------|
pm. . . . . .  .  .     . . . . . .


RIff 4b
|--------------------------------------------------------|
|--------------------------------------------------------|
|--------------------------------------------------------|
|----------------------------------2-------------4--ph---|
|-------------3--3--5-2------------0-------------2--2h3--|
|-2-3-5-2-3-2--2--2-----2222222222----2222222222---------|
pm. . . . . .  .  .     ..........    ..........


Riff 5a
|--------------------------------------------------------------------|
|--------------------------------------------------------------------|
|---------------------------------------------------6/8-8-8-8-8-8\7--| Gtr.
|---------------------------------5----------------------------------|  1
|-4-4-4-4-4-4-4-4-4-4-4-4-4-4-4-4-3-4-4-4-4-4-4-4-4-3/6-6-6-6-6-6\5--|
|-2-2-2-2-2-2-2-2-2-2-2-2-2-2-2-2---2-2-2-2-2-2-2-2------------------|
pm. . . . . . . . . . . . . . . .   . . . . . . . .                  |
|                                                                    |
|--------------------------------------------------------------------|
|--------------------------------------------------------------------|
|---------------------------------------------------6/8-8-8-8-8-8\7--| Gtr.
|---------------------------------5----------------------------------|  2
|-4~------------------------------3-4-4-4-4-4-4-4-4-3/6-6-6-6-6-6\5--|
|-2~--------------------------------2-2-2-2-2-2-2-2------------------|
pm.                                 . . . . . . . .


Riff 5b
|----------------------------------------------------------------------|
|----------------------------------------------------------------------|
|----------------------------------------------------------------------|
|---------------------------------5------------------------------------|
|-4-4-4-4-4-4-4-4-4-4-4-4-4-4-4-4-3-4-4-4-4-4-4-4-4-33333333332--------|
|-2-2-2-2-2-2-2-2-2-2-2-2-2-2-2-2---2-2-2-2-2-2-2-2-------------3-2-1--|
pm. . . . . . . . . . . . . . . .   . . . . . . . .                    |
|                                                                      |
|----------------------------------------------------------------------|
|----------------------------------------------------------------------|
|----------------------------------------------------------------------|
|---------------------------------5------------------------------------|
|-4~------------------------------3-4-4-4-4-4-4-4-4-33333333332--------|
|-2~--------------------------------2-2-2-2-2-2-2-2-------------3-2-1--|
pm.                                 . . . . . . . .





Comments


Popular Cannibal Corpse tabs & chords
Addicted To Vaginal Skin Bass Tabs
Blowtorch Slaughter 2 Bass Tabs
Encased In Concrete Bass Tabs
Evidence In The Furnace Intro Tabs
From Skin To Liquid Tabs
Fucked With A Knife Tabs
Grotesque Tabs
Hammer Smashed Face 1 Tabs
Post Mortal Ejaculation 2 Tabs
When Death Replaces Life Tabs


Song lyrics



↑ Back to top | Tablatures and chords are parodies/interpretations of the original songs. You may use it for private study, scholarship, research or language learning purposes only
© 2014 AZChords.com Contact us | Privacy policy | DMCA | Add/correct tabs | Request tabs | Top 50 tabs