>
 >
Crushing The Despised

Crushing The Despised Guitar Tabs

Cannibal Corpse - Crushing The Despised chords, tabs, tablatures, lyrics

Guitar lessons | Add/correct | Request | Top 50 tabs Artists:  A B C D E F G H I J K L M N O P Q R S T U V W X Y Z 0-9

Crushing The Despised Guitar Tabs – Cannibal Corpse

CD, Sheet music, Poster

Do you like Crushing The Despised? Share with your friends now
Tabs
Cannibal Corpse - Crushing The Despised (1998)

.  - palm mute           /  - slide up to
\  - slide down to       ~  - vibrato
h  - hammer on           b  - Bend
p  - pull off            Suffixes for bend
t  - tap                 f  - full bend    h - half bend
ph - pinched harmonic    q  - quarter bend t - tap bend
*  - see comment         ^  - Hold bend    r release bend
x  - Stuccatto           ~  - vibrato bend
,  - slight palm mute    () - ghost note, sustained note
"  - tremolo note        <> - Trill

Tune Down 3 steps or 1/2 step on 7-string


      Riff 1 (8x)Gtr.1         Gtr.2 over Riff 1               Gtr.2
             (4x)Gtr.2            play (3x)then Fill 1         Fill 1
    p.m   p.m   p.m   p.m      p.m   p.m   p.m   p.m
--------------------------|--------------------------|-------------------------|
--------------------------|--------------------------|-------------------------|
--------------------------|--------------------------|-------------------------|
--8-----8-----8-----8-----|--8-----8-----8-----8-----|--8-----8----------------|
--7-----7-----7-----7-----|--------------------------|--------------7-----2--2-|
-----0-----0-----0-----0--|-----0-----0-----0-----0--|--------------0-----0--0-|
                Riff 2 (4x)           Riff 1 Riff 2 Riff 1
 Bass                                         (4x)           trem. picked
 Line   p.m.......................\                          p.m...........\
|----|-------------------------------|------|------|------|--------------/-/---|
|----|-------------------------------|------|------|------|--/-/-/-/-/-/-/-/---|
|----|-------------------------------|------|------|------|--/-/-/-/-/-/-/-/---|
|----|-------------------------------|------|------|------|--/-/-/-/-/-/-5-6---|
|----|-------------------------------|------|------|------|--2-3-6-5-2-3-7-8---|
|----|--6-0-6-9-6-0-0-3-6-3-0-3-6-0--|------|------|------|--4-5-8-7-4-5-------|

 Riff 1                     Riff 3                         Riff 1

-------|--------------------------------------------------|------|
-------|--------------------------------------------------|------|
-------|--------------------------------------------------|------|
-------|--------------------------------------------------|------|
-------|---h-p---h-p---h-p---h-p---h-p---h-p---h-p-h------|------|
-------|--1-4-1\4-7-4/1-4-1\4-7-4/1-4-1\4-7-4-4-7-4-7\10--|------|

                    Riff 1 Riff 3 (4x)Gtr.1
  p.m...........\                 (2x)Gtr.2
--/-/--------------|------|----------------|
--/-/-/-/-/-/-/-/--|------|----------------|
--/-/-/-/-/-/-/-/--|------|----------------|
--6-5-/-/-/-/-/-/--|------|----------------|
--8-7-6-5-2-3-6-5--|------|----------------|
------8-7-4-5-8-7--|------|----------------|

         Gtr.2 play over Riff 3 part

--------------------------------------------------|
--------------------------------------------------|
---h-p---h-p---h-p---h-p---h-p---h-p---h-p-h------|
--3-6-3\6-9-6/3-6-3\6-9-6/3-6-3\6-9-6-6-9-6-9\12--|
--------------------------------------------------|
--------------------------------------------------|

--------------------------------------------------|
--------------------------------------------------|
---h-p---h--p---h-p---h--p---h-p---h--p---h-------|
--6-9-6\9-12-9/6-9-6\9-12-9/6-9-6\9-12-9-9-12\15--|
--------------------------------------------------|
--------------------------------------------------|
 Riff 1     Fill 2    Repeat all,
 Gtr.1(2x)  Gtr.2     beginning w/
 Gtr.2(1x)              Riff 2       End Fade Out
----------|----------|------------|---------------|
----------|----------|------------|---------------|
----------|----------|------------|---------------|
----------|--8--(8)--|------------|--8--(8)--(8)--|
----------|----------|------------|--7--(7)--(7)--|
----------|----------|------------|---------------|





Comments


Popular Cannibal Corpse tabs & chords
Staring Through The Eyes Of The Dead 1 Bass Tabs
When Death Replaces Life Bass Tabs
Intestinal Crank Tabs
Raped By The Beast Tabs
Scalding Hail Tabs
Staring Through The Eyes Of The Dead 1 Tabs
Staring Through The Eyes Of The Dead 3 Tabs
Under The Rotted Flesh 1 Tabs
Unite The Dead Tabs
Unnatural Intro Tabs


Song lyrics



↑ Back to top | Tablatures and chords are parodies/interpretations of the original songs. You may use it for private study, scholarship, research or language learning purposes only
© 2014 AZChords.com Contact us | Privacy policy | DMCA | Add/correct tabs | Request tabs | Top 50 tabs