» » »

Buried In The Backyard Tabs (ver.1)

Artists:  A B C D E F G H I J K L M N O P Q R S T U V W X Y Z # 

Buried In The Backyard Tabs (ver.1)

Cannibal Corpse
Rating:
4/5 (6 votes)

Hard to play? Try these video lessons and learn fast.
                "Buried in the Backyard" by Cannibal Corpse
Off of the album "Eaten Back To Life"

This song is so f**king weird!  I originally decided to tab it for two 
reasons-  I haven’t seen
a tab for it anywhere else, and, it sounded like it would be easy.  NO!  The 
whole song is
practically made up of  riffs, and you know how hard it is to figure out 
Cannibal Corpse riffs.
To make matters worse, the production is on the mushy side, so you can’t 
always hear what is
being played perfectly.  Man, I thought this would be easy!  For those 
reasons, some parts of
the tab are bound to be wrong, in which case any corrections would be 
greatly appreciated.
Comments are welcome and encouraged, and both can be sent to 

Tuning should be Eb (half a step down from standard).

Intro/ Riff 1
----------------------------------------------------------------------
------------------------------------------------------------7-6-7-----
-4-5-4-------------4-5-4------------4-5-4------------4-5-4------------
-------7-6-7-0000--------7-6-7-0000-------7-6-7-0000--------------0000

Riff 2
---------------------------------------------
---------------------------------------------
-------666-555-----------555-444-------------
---444---------777---333---------555---------

Riff 3
----------------------------
----------------------------
---6-5----------------------
-4-----7-6-7-5-3------------

Riff 4
---------------------------------------------
---------------------------------------------
-----333-222---------111---------------------
-111---------444-333-----222-000-------------

Riff 5
---------------------------------------------
---------------------------------------------
--6p4p0-6p4p0--------------------------------
--------------000-000------------------------

Riff 6
-------------------------356-356--------------
-----245-----245-----245----------------------
-024-----024-----024--------------------------
----------------------------------------------

Riff 7
---------5-4-3-------------------356----------
---------3-2-1---------------245--------------
-111-444---------111-444----------------------
----------------------------------------------

Riff 8
---------------------------------------------
---------------------------------------------
-----------0h6h7-7p6p0--------------222------
-444444444-------------44444444-111----------

Verse
----------------------------------------------------------------------
-------------------------023-321--------------------------------------
-------------0h1-----------------------------0h1------3-------10-9----
-0-0-0-0-4p3-----0-0-0-0---------0-0-0-0-4p3-----0-0--1--0-0---8s7----

Alternate Verse
---------------------------------------------------------------------
-------------------3p2p1-4p3p2-5p4p3-------------------3p2p1---------
---------3-----------------------------------3--------------3p2p1----
-0-0-0-0-1-0-0-0-0-------------------0-0-0-0-1-0-0-0-0-----------3p2p1

Riff 9
----------------------------------------------------------------------
------------012-321---------------------------012-321-----------------
-------------------------------22-------------------------------------
--44444444---------44444444-11-----44444444---------44444444-11-22----

Riff 10
------------------------------------------------
------------------------------------------------
-0-1-434343--0-1-434343--0-1-434343----3---2----
-------------------------------------5---4------

Stupid cr*ppy Riff that took me two weeks to decipher
---------------------------------------------
-------2p1-----------------------------------
-2p0-----------------------------------------
-----0-----0-0h2-2h3-3h5---------------------
            
Hard to play? Try these video lessons and learn fast. | Correct




comments powered by Disqus
↑ Back to top | Tablatures and chords are parodies/interpretations of the original songs. You may use it for private study, scholarship, research or language learning purposes only