>
 >
Born In A Casket 1

Born In A Casket 1 Guitar Tabs

Cannibal Corpse - Born In A Casket 1 chords, tabs, tablatures, lyrics

Guitar lessons | Add/correct | Request | Top 50 tabs Artists:  A B C D E F G H I J K L M N O P Q R S T U V W X Y Z 0-9

Born In A Casket 1 Guitar Tabs – Cannibal Corpse

CD, Sheet music, Poster

Do you like Born In A Casket 1? Share with your friends now
TabsTabs v2
Cannibal Corpse
Eaten Back to Life
Born In a Casket

Copyright (c)  Metalblade Records 1990
Version 1.0 - 25.12.2007



.  - palm mute           /  - slide up to
\  - slide down to       ~  - vibrato
h  - hammer on           b  - Bend
p  - pull off            Suffixes for bend
t  - tap                 f  - full bend    h - half bend
ph - pinched harmonic    q  - quarter bend t - tap bend
*  - see comment         ^  - Hold bend    r release bend
x  - Stuccatto           ~  - vibrato bend
,  - slight palm mute    () - ghost note, sustained note
"  - tremolo note        <> - Trill

Tuning is D#


Note: Since both guitars are panned to the middle
      i will address the channels as 'Gtr 1' and 'Gtr 2'
      rather than L and R.



<<<<< Fade in
|--------------|
|--------------|
|--------------|
|--------------|
|-3------------|
|-1------------|


Intro x 10
|Gtr 1 (Riff A)
|---------------------------|
|---------------------------|
|---------------------------|
|---------------------------|
|-3-----4-2-2-4-------3-2-2-|
|-1-----2-0-0-2-------1-0-0-|
|         . .           . .
|Gtr 2
|-first 4 times are low ----|
|-whammy noise--------------|
|-next 4 times are high-----|
|-whammy noise--------------|
|-last 2 times are low------|
|-whammy noise--------------|


Riff A x4


Passage 1 x2
|Gtr 1 (Riff B) Separations are done for your convenience
|               play it as if they are not there.
|-----=----=----=----=----=----=----=----|
|-----=----=----=----=----=----=----=----|
|-----=----=----=----=----=----=----=----|
|-----=----=----=3---=----=----=----=3-3-|
|-----=----=----=1---=----=----=----=1-2-|
|-3020=0000=2000=--00=3020=0000=2000=----|
|
|Gtr 2
|----------------------------------------|
|----------------------------------------|
|----------------------------------------|
|----------------3-------------------3-4-|
|----------------1-------------------1-2-|
|----------------------------------------|


Riff A x4
Riff B x3


Riff B2 x1
|-----=----=----=-----|
|-----=----=----=-----|
|-----=----=----=-----|
|-----=----=----=3----|
|-----=----=----=1----|
|-3020=0000=2000=--00-|


Riff C x4
|-------------------------------------------------|
|-------------------------------------------------|
|-------------------------------------------------|
|-------------------------------------------------|
|-5\----------2-5-4-------5\----------4-----3-----|
|-3\--0-0-0-0-------2-5-3-3\--0-0-0-0-2-----1-----|
      . . . .       . . .     . . . .


Passage 2 x1
|Gtr 1
|-----=----=----=----=----=----=----=----|
|-----=----=----=----=----=----=----=----|
|-----=----=----=----=----=----=----=----|
|-----=----=----=3---=----=----=----=3-3-|
|-----=----=----=1---=----=----=----=1-2-|
|-3020=0000=2000=--00=3020=0000=2000=----|
|
|Gtr 2
|--------------------=----=----=----=----|
|--------------------=----=----=----=----|
|--------------------=----=----=----=----|
|----------------3---=----=----=----=3-4-|
|----------------1---=----=----=----=1-2-|
|------------------00=3020=0000=2000=----|


Riff B x3


Riff D x2
|-----------------------------------------|
|-----------------------------------------|
|-----------------------------------------|
|----------------3-------------------4----|
|-3344-6644-3344---00-3344-6644-3344---00-|
|-----------------------------------------|


Riff B x2
Riff D x2


Passage 3 x1
|Gtr 1 (Riff E1)
|-------------------------------------------------------------------|
|-------------------------------------------------------------------|
|-------------------------------------------------------------------|
|-6\------9/10-9\8--6\------9/10-9\8--9\------9/10-9\8--6\----------|
|-4\--"---7/8--7\6--4\--"---7/8--7\6--7\--"---7/8--7\6--4\--"---6-5-|
|-----0-----------------0-----------------0-----------------0---4-3-|
|
|Gtr 2
|-------------------------------------------------------------------|
|-------------------------------------------------------------------|
|-------------------------------------------------------------------|
|-6-----------------6-----------------9-----------------6-----------|
|-4-----------------4-----------------7-----------------4---"---"-"-|
|-----------------------------------------------------------0---4-3-|


Riff E1 x2


Riff E2 x2
|-------------------------------------------------------------------|
|-------------------------------------------------------------------|
|-------------------------------------------------------------------|
|-6\------9/10-9\8--6\------9/10-9\8--9\------9/10-9\8--6\----------|
|-4\------7/8--7\6--4\------7/8--7\6--7\------7/8--7\6--4\------6-5-|
|----000---------------000---------------000---------------000--4-3-|
     ...               ...               ...               ...


Break


Riff F x4 (4th time stop at '=' mark)
|-------------------=---------------------|
|-------------------=---------------------|
|-------------------=---------------------|
|-------------------=---------------------|
|-3-------5-------4-=---------------------|
|-1---000-3---000-2-=-000-000-000-000-000-|
      ...     ...     ... ... ... ... ...


Riff G x4
|-----------------|
|-----------------|
|-----------------|
|-----------------|
|-6\----------3---|
|-4\--000-000-1---|
      ... ...


Riff F x5 (1st time start at '=' mark, 5th time stop at '=' mark)


Outro
|           x1|             x7|             x3|             x1|
|-------------|---------------|---------------|---------------|
|-------------|---------------|---------------|---------------|
|-------------|---------------|---------------|---------------|
|-------------|---------------|---------------|---------TOM---|
|-6\----------|-3-6\----------|-8-6\----------|-3/4-----------|
|-4\-00000000-|-1-4\-00000000-|-6-4\-00000000-|-1/2-----------|



END





Comments


Popular Cannibal Corpse tabs & chords
Necropediphile Bass Tabs
Beyond The Cemetery 1 Tabs
Blunt Force Castration Tabs
Compelled To Lacerate 1 Tabs
Encased In Concrete Tabs
Meathook Sodomy Tabs
Pit Of Zombies 1 Tabs
Post Mortal Ejaculation 1 Tabs
Staring Through The Eyes Of The Dead 3 Tabs
Unnatural Intro Tabs


Song lyrics



↑ Back to top | Tablatures and chords are parodies/interpretations of the original songs. You may use it for private study, scholarship, research or language learning purposes only
© 2014 AZChords.com Contact us | Privacy policy | DMCA | Add/correct tabs | Request tabs | Top 50 tabs