» » »

Canned Heat, Let's Work Together Bass tabs (ver.1)

Artists:  A B C D E F G H I J K L M N O P Q R S T U V W X Y Z # 

Let's Work Together Bass tabs (ver.1)

Canned Heat Tabs
Rating:
0/5 (0 votes)
Let's Work Together lessons Tabs too difficult? Try these video lessons and learn fast
                ----------------------------------------------------------------------------
-------------------------------------------------------------------------------


Tuning: standard baby!

I hope you like 12-bar blues!! And don't forget to boogie!!

intro :

G|------------------------------------------------------------|
D|--------------------------------55-----55-----55-----55-----|
A|55-----55------33-----33----------7-5----7-5----7-5----7-5--|
E|--7-5-----7-5-----5-3----5-3--------------------------------|

all of the verses:
G|--(x8)------(x4)------(x4)-------------------------------------------|
D|55-------------------55----------------------------------------------|
A|--7-5------33-----------7-5----55-----55-----33-----33---------------|
E|--------------5-3-----------------7-5----7-5----5-3----5-3-----------|


G|---------------------------------------------------------|
D|55-----55-----55-----55----------------------------------|
A|---7-5----7-5----7-5---7-5-------------------------------|
E|---------------------------------------------------------|

And then it's back to the verses for the rest of the song! For the outro just play the 
intro riff and that's it!!!






| /  slide up
| \  slide down
| h  hammer-on
| p  pull-off
| ~  vibrato
| +  harmonic
| x  Mute note
===============================================================================
            
Submit corrections

comments powered by Disqus
↑ Back to top | Canned Heat Bass for Let's Work Together. Lyrics for acoustic guitar and electric guitar. Tablatures and chords are parodies/interpretations of the original songs. You may use it for private study, scholarship, research or language learning purposes only