» » »

Let's Work Together Tabs (ver.1)

Artists:  A B C D E F G H I J K L M N O P Q R S T U V W X Y Z # 

Let's Work Together Tabs (ver.1)

Canned Heat
Rating:
0/5 (0 votes)

Tabs too difficult? Try these video lessons and learn fast.
                Canned Heat
Let's Work Together - On the road again


intro:

solo guitar:

     D             C       G
e||-----------------------------------------------------------------|
B||--13~---13\10-----------15-h18p15--13------15-h18p15--13-----15--|
G||--14------------12--------------------12-----------------12------|
D||-----------------------------------------------------------------|
A||-----------------------------------------------------------------|
E||-----------------------------------------------------------------|

rythm guitar

          D                 C                G
e||---------------------------------------------------------------------|
B||---------------------------------------------------------------------|
G||---------------------------------------------------------------------|
D||--7-7-9-7-7-7-9-7--5-5-7-5-5-5-7-5-----------------------------------|
A||--5-5-5-5-5-5-5-5--3-3-3-3-3-3-3-3--5-5-7-5-5-5-7-5--5-5-7-5-5-5-7-5-|
E||------------------------------------3-3-3-3-3-3-3-3--3-3-3-3-3-3-3-3-|

verse:

fills:

e||------------------------------------------------------|
B||------------------------------------------------------|
G||----------15\17----17b--17-15--------15-h18p15--13----|
D||------------------------------17-------------------12-|
A||------------------------------------------------------|
E||------------------------------------------------------|

rythm guitar

          G
e||---------------------------------------------------------------------|
B||---------------------------------------------------------------------|
G||---------------------------------------------------------------------|
D||---------------------------------------------------------------------|
A||--5-5-7-5-5-5-7-5--5-5-7-5-5-5-7-5--5-5-7-5-5-5-7-5--5-5-7-5-5-5-7-5-|
E||--3-3-3-3-3-3-3-3--3-3-3-3-3-3-3-3--3-3-3-3-3-3-3-3--3-3-3-3-3-3-3-3-|

          C                                  G
e||---------------------------------------------------------------------|
B||---------------------------------------------------------------------|
G||---------------------------------------------------------------------|
D||--5-5-7-5-5-5-7-5--5-5-7-5-5-5-7-5-----------------------------------|
A||--3-3-3-3-3-3-3-3--3-3-3-3-3-3-3-3--5-5-7-5-5-5-7-5--5-5-7-5-5-5-7-5-|
E||------------------------------------3-3-3-3-3-3-3-3--3-3-3-3-3-3-3-3-|

          D                 C                G
e||---------------------------------------------------------------------|
B||---------------------------------------------------------------------|
G||---------------------------------------------------------------------|
D||--7-7-9-7-7-7-9-7--5-5-7-5-5-5-7-5-----------------------------------|
A||--5-5-5-5-5-5-5-5--3-3-3-3-3-3-3-3--5-5-7-5-5-5-7-5--5-5-7-5-5-5-7-5-|
E||------------------------------------3-3-3-3-3-3-3-3--3-3-3-3-3-3-3-3-|

solo 1:

e||-----------------------------------------------------------------------|
B||-----------------------------------------------------------------------|
G||-----------------------------------------------------------------------|
D||--------12-12-10-9-9\12--------12-12-10-8-8b----------12-12-10-9-9\12--|
A||--10-10-----------------10-10---------------10--10-10------------------|
E||-----------------------------------------------------------------------|

e||-----------------------------------------------------------------------------------------------|
B||-----------------------------------------------------------------------------------------------|
G||-----------------------------------------------------------------------------------------------|
D||--------12----10-8---------10----8\10-8----8r-----10p8----8b-----8b------8b----8b----8b----10b-|
A||--10-10----10------10---10----10--------10----10-------10----10-----10------10----10----10-----|
E||-----------------------------------------------------------------------------------------------|

e||----------------------|
B||----------------------|
G||----------------------|
D||-----8b-8b------------|
A||-----------10-8-10-10-|
E||----------------------|

solo 2:

e||-------------------------------------------------------------------------------------------------------------|
B||---13h15----------13h15----------13h15p13------13h15p13h15p13h15p13h15p[-13b-h-15b-p-13b-h-15b-]p13h15p13----|
G||---------16-16-16-------16-16-16----------15~-------------------------------------------------------------12-|
D||-------------------------------------------------------------------------------------------------------------|
A||-------------------------------------------------------------------------------------------------------------|
E||-------------------------------------------------------------------------------------------------------------|

e||--------------------------------------------|
B||---20~-20~-20~-20---18-15--8\6-8--6\8--8-6--|
G||--------------------------------------------|
D||--------------------------------------------|
A||--------------------------------------------|
E||--------------------------------------------|
            
Tabs too difficult? Try these video lessons and learn fast.




comments powered by Disqus
↑ Back to top | Tablatures and chords are parodies/interpretations of the original songs. You may use it for private study, scholarship, research or language learning purposes only