» » »

Candlemass, Witches Tabs (ver.1)

Artists:  A B C D E F G H I J K L M N O P Q R S T U V W X Y Z # 

Witches Tabs (ver.1)

Candlemass Tabs
 Rating:
4.5/5 (8 votes)
Witches lessons Tabs too difficult? Try these video lessons and learn fast
1
                -------------------------------------------------------------------------------
                             Witches---Candlemass
-------------------------------------------------------------------------------

Tuning:Drop D
Intro (only the background idk the other part)
I figured this out by ear so it may not be all right, but F*** IT METAL RULES!
e|---------------------------------------------------------------------------|
B|---------------------------------------------------------------------------|
G|---------------------------------------------------------------------------|
D|-0~~~~~~~~~~~--------0~~~~~~~~~~~~~----------------------------------------|
A|-0~~~~~~~~~~~--------0~~~~~~~~~~~~~----------------------------------------|
D|-0~~~~~~~~~~~--------0~~~~~~~~~~~~~----------------------------------------|

e|-----------------------------------|
B|-----------------------------------|
G|-----------------------------------| (x8)
D|0-0-0-0-0-0-0-0-0-0-0-0-0-0-0-0----|
A|0-0-0-0-0-0-0-0-0-0-0-0-0-0-0-0----|
D|0-0-0-0-0-0-0-0-0-0-0-0-0-0-0-0----|
PM.....

e|----------------------------------------|
B|----------------------------------------|
G|----------------------------------------| (x12)
D|----------------------------------------|
A|------------5---4-----------------------|
D|-0--3-0-2-0---0-------------------------|

e|-----------------------------------|
B|-----------------------------------|
G|-----------------------------------| (x4)
D|0-0-0-0-0-0-0-0-0-0-0-0-0-0-0-0----|
A|0-0-0-0-0-0-0-0-0-0-0-0-0-0-0-0----|
D|0-0-0-0-0-0-0-0-0-0-0-0-0-0-0-0----|
PM.....

e|----------------------------------------|
B|----------------------------------------|
G|----------------------------------------| (x8)
D|----------------------------------------|
A|------------5---4-----------------------|
D|-0--3-0-2-0---0-------------------------|

e|--------------------------------------|
B|--------------------------------------|
G|--------------------------------------| (x4)
D|--------------------------------------|
A|--------------------------------------|
D|--7-7-6-3--2-3-6-7-9-9-10-9-6---------|
Harmony part for riff above (on 4th time let last note ring on 12 not 9)
e|--------------------------------------------------|
B|--------------------------------------------------|
G|--------------------------------------------------| (x4)
D|--10--10-9-7--6-7-9-10-12-12b14b12-9--------------|
A|--------------------------------------------------|
D|--------------------------------------------------|

e|-----------------------------------------------------------------|
B|-----------------------------------------------------------------|
G|-----------------------------------------------------------------| (x12)
D|-0-0--12-0-0-11--0-0--7-h8-8-7----0-0-12-0-0-11-0-0-7-8-10-8~~~--|
A|-0-0--12-0-0-11--0-0--7-h8-8-7----0-0-12-0-0-11-0-0-7-8-10-8~~~--|
D|-0-0--12-0-0-11--0-0--7-h8-8-7----0-0-12-0-0-11-0-0-7-8-10-8~~~--|

e|-----------------------------------|
B|-----------------------------------|
G|-----------------------------------| (x8)
D|0-0-0-0-0-0-0-0-0-0-0-0-0-0-0-0----|
A|0-0-0-0-0-0-0-0-0-0-0-0-0-0-0-0----|
D|0-0-0-0-0-0-0-0-0-0-0-0-0-0-0-0----|

e|----------------------------------------|
B|----------------------------------------|
G|----------------------------------------| (x12)
D|----------------------------------------|
A|------------5---4-----------------------|
D|-0--3-0-2-0---0-------------------------|

e|--------------------------------------|
B|--------------------------------------|
G|--------------------------------------| (x4)
D|--------------------------------------|
A|--------------------------------------|
D|--7-7-6-3--2-3-6-7-9-9-10-9-6---------|
Harmony part for riff above (on 4th time let last note ring on 12 not 9)
e|--------------------------------------------------|
B|--------------------------------------------------|
G|--------------------------------------------------| (x4)
D|--10--10-9-7--6-7-9-10-12-12b14b12-9--------------|
A|--------------------------------------------------|
D|--------------------------------------------------|

e|------------------------------------------|
B|------------------------------------------| (Not sure how many times but from
G|------------------------------------------|   5:10 to 6:22)
D|0-0-0-8-7-0-0-7-8-0-0-8-7-0-0-0-----------|
A|0-0-0-8-7-0-0-7-8-0-0-8-7-0-0-0-----------|
D|0-0-0-8-7-0-0-7-8-0-0-8-7-0-0-0-----------|

Easy to learn by ear, hopefully easy to learn from this tab. Yes I tabbed it, and yes I
it and it sounds dead on to me, now you decide. This is my first tab and I did
but the solos cuz im a lazy mofo and IDK them. Anyway rate 5 stars PLEASE cuz this song 
insane and everyone should learn how to play it. Its 2:48am, and im going to bed.
************************************

| /   slide up
| \   slide down
| h   hammer-on
| p   pull-off
| ~   vibrato
| +   harmonic
| x   Mute note
| b   Bend
| pb  Pre-bend
| br  Bend release
| pbr Pre-bend release
| brb Bend release bend

************************************
            
Submit corrections

comments powered by Disqus
↑ Back to top | Candlemass Tabs for Witches. Lyrics for acoustic guitar and electric guitar. 1 Tablatures and chords are parodies/interpretations of the original songs. You may use it for private study, scholarship, research or language learning purposes only