>
 >
Solitude 1

Solitude 1 Bass Tabs

Candlemass - Solitude 1 chords, tabs, tablatures, lyrics

Guitar lessons | Add/correct | Request | Top 50 tabs Artists:  A B C D E F G H I J K L M N O P Q R S T U V W X Y Z 0-9

Solitude 1 Bass Tabs – Candlemass

CD, Sheet music, Poster

Do you like Solitude 1? Share with your friends now
Bass Tabs
PLEASE RATE!


RIFF_1
Intro (starts with drums)
G|-------------------------------------------------------
D|-------------------------------------------------------
A|-------------------------------------------------------
E|--12\----12\----12\----12\----12\----12\----12\----12/-


RIFF_2
Main riff
G|---------------------|---------------
D|---------------------|---------------
A|------2------3----3--|------2--------
E|-0-------0-----------|--0------2---1-


RIFF_3
Chorus riff
G|-------------------------------------------
D|-------------------------------------------
A|-----------------3----3--2----2--1---------
E|-0----0--1----1----------------------3---1-


RIFF_4
Solo riff
G|------------------------------------------
D|------------------------------------------
A|-----------1---1-------------2-----1------
E|-0---0--0----------0---0--0-----2-----1---
pm     ....              ....   


Guitar intro...

RIFF_1   X 1 (starts with the drums)   
RIFF_2   X 13
RIFF_3   X 2
Guitar brake...
RIFF_4   X 8
RIFF_3   X 2
RIFF_2   X 6
RIFF_3   X 4

Guitar outro...





Comments


Popular Candlemass tabs & chords
Bewitched 1 Tabs
Black As Time Tabs
Black Stone Wielder Tabs
Dark Are The Veils Of Death Tabs
Demons Gate Tabs
Demons Gate 1 Tabs
Marche Funebre Tabs
Samarithan 2 Tabs
The Lights Of Thebe Tabs
Under The Oak Tabs


Song lyrics



↑ Back to top | Tablatures and chords are parodies/interpretations of the original songs. You may use it for private study, scholarship, research or language learning purposes only
© 2014 AZChords.com Contact us | Privacy policy | DMCA | Add/correct tabs | Request tabs | Top 50 tabs