» » »

Candlemass, Solitude Tabs (ver.2)

Artists:  A B C D E F G H I J K L M N O P Q R S T U V W X Y Z # 

Solitude Tabs (ver.2)

Candlemass Tabs
 Rating:
3.5/5 (8 votes)
Solitude lessons Tabs too difficult? Try these video lessons and learn fast
                

I think this intro is so much better than the other one here.
Realy easy to play when you got it!
Enjoy!


Intro: Acoustic guitar


E||--------------------------|--------------------------|
B||--------------------------|--------5-----------------|
G||-----4-----------7-----5--|-----4-----4-----7-----5--|
D||--------5-----5-----4-----|--------------5-----4-----|
A||--7--------7--------------|--7-----------------------|
E||--------------------------|--------------------------|


                                                                                 
--------------------------|--------------------------|--------------------------|
--------------------------|--------5-----------------|--------------------------|
-----4-----------7-----5--|-----4-----4-----7-----5--|-----4-----------7-----5--|
--------5-----5-----4-----|--------------5-----4-----|--------5-----5-----4-----|
--7--------7--------------|--7-----------------------|--7--------7--------------|
--------------------------|--------------------------|--------------------------|


                                                                                 
--------------------------|--------------------------|--------------------------|
--------5-----------------|--------------------------|--------5-----------------|
-----4-----4-----7-----5--|-----4-----------7-----5--|-----4-----4-----7-----5--|
--------------5-----4-----|--------5-----5-----4-----|--------------5-----4-----|
--7-----------------------|--7--------7--------------|--7-----------------------|
--------------------------|--------------------------|--------------------------|


                                                                  
--------------------------|--0----------------|------------------|
--------------------------|--0----------------|------------------|
-----4-----------7-----5--|--0----------------|------------------|
--------5-----5-----4-----|--2----------------|------------------|
--7--------7--------------|--2----------------|------------------|
--------------------------|--0----------------|------------------|





Electric guitar from here!

                                                                   
--------------------|-----------------------|----------------------|
--------------------|-----------------------|----------------------|
--------------------|-----------------------|----------------------|
--------------------|-----------------------|----------------------|
--------------------|-------2-----3~---3~---|-------2--------------|
--------------24/---|--0-------0------------|--0-------2--1~-------|


                                                                       
-----------------------|----------------------|-----------------------|
-----------------------|----------------------|-----------------------|
-----------------------|----------------------|-----------------------|
-----------------------|----------------------|-----------------------|
-------2-----3~---3~---|-------2--------------|-------2-----3~---3~---|
--0-------0------------|--0-------2--1~-------|--0-------0------------|


                                                                      
----------------------|-----------------------|----------------------|
----------------------|-----------------------|----------------------|
----------------------|-----------------------|----------------------|
----------------------|-----------------------|----------------------|
-------2--------------|-------2-----3~---3~---|-------2--------------|
--0-------2--1~-------|--0-------0------------|--0-------2--1~-------|


                                                                       
-----------------------|----------------------|-----------------------|
-----------------------|----------------------|-----------------------|
-----------------------|----------------------|-----------------------|
-----------------------|----------------------|-----------------------|
-------2-----3~---3~---|-------2--------------|-------2-----3~---3~---|
--0-------0------------|--0-------2--1~-------|--0-------0------------|


                                                                      
----------------------|-----------------------|----------------------|
----------------------|-----------------------|----------------------|
----------------------|-----------------------|----------------------|
----------------------|-----------------------|----------------------|
-------2--------------|-------2-----3~---3~---|-------2--------------|
--0-------2--1~-------|--0-------0------------|--0-------2--1~-------|


                                                                       
-----------------------|----------------------|-----------------------|
-----------------------|----------------------|-----------------------|
-----------------------|----------------------|-----------------------|
-----------------------|----------------------|-----------------------|
-------2-----3~---3~---|-------2--------------|-------2-----3~---3~---|
--0-------0------------|--0-------2--1~-------|--0-------0------------|


                                                                      
----------------------|-----------------------|----------------------|
----------------------|-----------------------|----------------------|
----------------------|-----------------------|----------------------|
----------------------|-----------------------|----------------------|
-------2--------------|-------2-----3~---3~---|-------2--------------|
--0-------2--1~-------|--0-------0------------|--0-------2--1~-------|


                                                                
--------------------|--------------------|---------------------|
--------------------|--------------------|---------------------|
--------------------|--------------------|---------------------|
--------------------|--5--------4--------|--3------------------|
--2--------3--------|--3--------2--------|--1--------3----5----|
--0--------1--------|--------------------|-----------1----3----|


                                                                
--------------------|--------------------|---------------------|
--------------------|--------------------|---------------------|
--------------------|--------------------|---------------------|
--------------------|--5--------4--------|--3------------------|
--2--------3--------|--3--------2--------|--1--------3----5----|
--0--------1--------|--------------------|-----------1----3----|


                                                                       
-----------------------|----------------------|-----------------------|
-----------------------|----------------------|-----------------------|
-----------------------|----------------------|-----------------------|
-----------------------|----------------------|-----------------------|
-------2-----3~---3~---|-------2--------------|-------2-----3~---3~---|
--0-------0------------|--0-------2--1~-------|--0-------0------------|


                                                                      
----------------------|-----------------------|----------------------|
----------------------|-----------------------|----------------------|
----------------------|-----------------------|----------------------|
----------------------|-----------------------|----------------------|
-------2--------------|-------2-----3~---3~---|-------2--------------|
--0-------2--1~-------|--0-------0------------|--0-------2--1~-------|


                                                                       
-----------------------|----------------------|-----------------------|
-----------------------|----------------------|-----------------------|
-----------------------|----------------------|-----------------------|
-----------------------|----------------------|-----------------------|
-------2-----3~---3~---|-------2--------------|-------2-----3~---3~---|
--0-------0------------|--0-------2--1~-------|--0-------0------------|


                                                                      
----------------------|-----------------------|----------------------|
----------------------|-----------------------|----------------------|
----------------------|-----------------------|----------------------|
----------------------|-----------------------|----------------------|
-------2--------------|-------2-----3~---3~---|-------2--------------|
--0-------2--1~-------|--0-------0------------|--0-------2--1~-------|


                                                                
--------------------|--------------------|---------------------|
--------------------|--------------------|---------------------|
--------------------|--------------------|---------------------|
--------------------|--5--------4--------|--3------------------|
--2--------3--------|--3--------2--------|--1--------3----5----|
--0--------1--------|--------------------|-----------1----3----|


                                                                
--------------------|--------------------|---------------------|
--------------------|--------------------|---------------------|
--------------------|--------------------|---------------------|
--------------------|--5--------4--------|--3------------------|
--2--------3--------|--3--------2--------|--1--------3----5----|
--0--------1--------|--------------------|-----------1----3----|


                                                                
-------------------|------------------|------------------------|
-------------------|------------------|------------------------|
-------------------|------------------|------------------------|
-------------------|------------------|-------------5----------|
--2----------------|------------------|--2----------3----------|
--0----------------|------------------|--0------x-x--------x-x-|


                                                                              
-------------------------|------------------------|-------------------------||
-------------------------|------------------------|-------------------------||
-------------------------|------------------------|-------------------------||
-------------------------|-------------5----------|-------------------------||
--2----------2-----1-----|--2----------3----------|--2----------2-----1-----||
--0------x-x----2-----1--|--0------x-x--------x-x-|--0------x-x----2-----1--||
            
Submit corrections

comments powered by Disqus
↑ Back to top | Candlemass Tabs for Solitude. Lyrics for acoustic guitar and electric guitar. Tablatures and chords are parodies/interpretations of the original songs. You may use it for private study, scholarship, research or language learning purposes only