» » »

Candlemass, Siren Song Tabs (ver.1)

Artists:  A B C D E F G H I J K L M N O P Q R S T U V W X Y Z # 

Siren Song Tabs (ver.1)

Candlemass Tabs
Rating:
0/5 (0 votes)
Siren Song lessons Tabs too difficult? Try these video lessons and learn fast
                ------------------------------------------------------------------------------
------------------------------------------------------------------------------
Band: Candlemass


Hey everyone, this is my tab for this song, and I think it sounds pretty good. 
All of the rhythm parts are in here, as well as the little bass/keyboard 
interlude in the middle of the song. Hopefully this tab is accurate, and that 
you guys find it helpful! If you have any comments, questions, or corrections 
to point out, please feel free to leave a message here, or to send me an email! :D


Tuning: C#


Riff 1 (Guitar 1)
|-----------------|
|-----------------|
|--4--4--4--------| x12
|--4--4--4--------|
|--2--2--2--------|
|------------3-2--|

Riff 1 (Guitar 2)
|-----------------|
|-----------------|
|--4--4--4--------| x12
|--4--4--4---5-4--|
|--2--2--2---5-4--|
|------------3-2--|


Riff 2
|-----------|
|-----------|
|--2-3-3-2--| x2
|--2-3-3-2--|
|--0-1-1-0--|
|-----------|


Riff 3
|---------|
|---------|
|--7---3--| x1
|--7---3--|
|--5---1--|
|---------|


Riff 1 x 12

Riff 2 x 2

Riff 3 x 1

Riff 1 x 12

Riff 2 x 2

Riff 3 x 1


Riff 4
|-----|
|-----|
|--2--| x1
|--2--|
|--0--|
|-----|


Bass/Keyboard Interlude:

Keyboard
|--5-6-6-5v~------5-6-6-5v~---8-6--5h6p5-3h5---12-10v~-|
|------------------------------------------------------|
|--2-3-3-2v~------2-3-3-2v~---5-3--2h3p2-0h2----9-7v~--|
|------------------------------------------------------|
|------------------------------------------------------|
|------------------------------------------------------|

Bass
|------------------------------------------------------|
|------------------------------------------------------|
|--0-1-1-0--------0-1-1-0-----3-1--0h1p0---0-----------|
|----------------------------------------3-------------|


Keyboard
|--5-6-6-5v~---8-6--5h6p5-3h5---12-10v~-|
|---------------------------------------|
|--2-3-3-2v~---5-3--2h3p2-0h2----9-7v~--|
|---------------------------------------|
|---------------------------------------|
|---------------------------------------|

Bass
|---------------------------------------|
|---------------------------------------|
|--0-1-1-0------------------------------|
|---------------------------------------|


Keyboard
|--5-6-6-5v~---8-6--5h6p5-3h5---8--12--15--|
|------------------------------------------|
|--2-3-3-2v~---5-3--2h3p2-0h2---5--9---12--|
|------------------------------------------|
|------------------------------------------|
|------------------------------------------|

Bass
|------------------------------------------|
|------------------------------------------|
|--0-1-1-0---------------------------------|
|------------------------------------------|

[Note: This part might not be 100% correct, 
but I believe all of the notes are right, and 
I think it's pretty close to how they play it 
in the song. You can mess around with this a 
little bit to get the sound that you want though.]


Riff 1 x 12

On the 3rd time, guitar 1 plays this before
playing riff 1 again:

|----------|
|----------|
|--5br-4v~-|
|----------|
|----------|
|----------|


Riff 2 x 2

Riff 3 x 1

Riff 1 x 4


Riff 5a
|--------------------------------|
|--------------------------------|
|--9---12---11---7----7---5---9--| x1
|--9---12---11---7----7---5---9--|
|--7---10----9---5----5---3---7--|
|--------------------------------|

Riff 5b
|----------------------------|
|----------------------------|
|--9---12---11---7----7---5--| x1
|--9---12---11---7----7---5--|
|--7---10----9---5----5---3--|
|----------------------------|


Riff 1 x 2

Riff 5b x 1


|-----|
|-----|
|--9--| Song ends on C#.
|--9--|
|--7--|
|-----|


And that's just about it!


************************************

| /   slide up
| \   slide down
| h   hammer-on
| p   pull-off
| v   vibrato
| .   Mute note
| *   harmonic
| b   Bend
| pb  Pre-bend
| br  Bend release
| pbr Pre-bend release
| brb Bend release bend

************************************
            

comments powered by Disqus
↑ Back to top | Candlemass Tabs for Siren Song. Lyrics for acoustic guitar and electric guitar. Tablatures and chords are parodies/interpretations of the original songs. You may use it for private study, scholarship, research or language learning purposes only