» » »

Samarithan Tabs (ver.1)

Artists:  A B C D E F G H I J K L M N O P Q R S T U V W X Y Z # 

Samarithan Tabs (ver.1)

Candlemass
Rating:
3/5 (3 votes)

Hard to play? Try these video lessons and learn fast.
                Candlemass - Samarithan


Riff 1
eb|--------------------------------|
Bb|--------------------------------|
Gb|--------------------------------|
Db|--------------------------------|
Ab|-------2-------5--4--2--5-4--7\-|
Eb|-2--5-----3-2-------------------|


Riff 2           4th time \/  
eb|-------------|-------------|
Bb|-------------|-------------|
Gb|-------------|-------------|
Db|-------------|----4--3-----|
Ab|----5--4-----|---------5-4-|
Eb|-2-------5-4-|-2-----------|


Riff 3
eb|-----------------------------------------|
Bb|-----------------------------------------|
Gb|-----------------------------------------|
Db|-----6-------6---------------------------|
Ab|-4---4---4---4---4---2--5--7--5--4-------|
Eb|-2-------2-------2---0--------------5--4-|


Riff 4
eb|----------------------|
Bb|----------------------|
Gb|----------------------|
Db|----------------------|
Ab|-4-4-4-3--------------|
Eb|-2-2-2-1-1-1-1-1-1-1--|
            . . . . . .


Riff 5
eb|---------------------------------|
Bb|---------------------------------|
Gb|---------------------------------|
Db|-5/4-------------7-6-------------|
Ab|-3/2-2-2-5-4-2-4-5-4-4-4-7-6-4-2-|
Eb|---------3-2-0-2---------5-4-2-0-|
        . .             . .          

Ends with a F5
Db|-4-|
Ab|-4-|
Eb|-2-|
            
Hard to play? Try these video lessons and learn fast. | Correct




comments powered by Disqus
↑ Back to top | Tablatures and chords are parodies/interpretations of the original songs. You may use it for private study, scholarship, research or language learning purposes only