» » »

Candlemass, Mourners Lament Tabs (ver.1)

Artists:  A B C D E F G H I J K L M N O P Q R S T U V W X Y Z # 

Mourners Lament Tabs (ver.1)

Candlemass Tabs
 Rating:
4.3/5 (6 votes)
Mourners Lament lessons Tabs too difficult? Try these video lessons and learn fast
                Candlemass - Mourners Lament

Riff 1
Eb-|----------------------------------------|
Bb-|----------------------------------------|
Gb-|----------------------------------------|
Db-|----------------------------------------|
Ab-|----7--6--------------------------------|
Eb-|-5--------7--8--7--5--0-1-5-4-1-0-1-----|

Verses
Eb-|-----|-----|-----|-----|
Bb-|-----|-----|-----|-----|
Gb-|-----|-----|-----|-----|
Db-|--2--|--8--|--2--|--9--|
Ab-|--2--|--8--|--2--|--9--|
Eb-|--0--|--6--|--0--|--7--|

Riff 2a
Eb-|----------------------------------------|
Bb-|----------------------------------------|
Gb-|----------------------------------------|
Db-|----------------------------------------|
Ab-|-----4--2--4--5---------4--3------------|
Eb-|--2--------------3--2---------5--4------|

Riff 2b
Eb-|----------------------------------------|
Bb-|----------------------------------------|
Gb-|----------------------------------------|
Db-|-----4--2--4--5---------4--3------------|
Ab-|--2--------------3--2---------5--4------|
Eb-|----------------------------------------|

Riff 3
Eb-|----------------------------------------|
Bb-|----------------------------------------|
Gb-|----------------------------------------|
Db-|----------------------------------------|
Ab-|----------------------------------------|
Eb-|-0-0--3--2--5--4--7--6--3---------------|

Riff 4
Eb-|----------------------------------------|
Bb-|----------------------------------------|
Gb-|----------------------------------------|
Db-|--2-2-2-2-2--5-4-3----------------------|
Ab-|--2-2-2-2-2--5-4-3----------------------|
Eb-|--0-0-0-0-0--3-2-1----------------------|
      . . . . .

Riff 5
Eb-|----------------------------------------|
Bb-|----------------------------------------|
Gb-|----------------------------------------|
Db-|------2-1h2p1---------------------------|
Ab-|-2--3---------3-2-2-3-3---2-3-3---------|
Eb-|------------------------2---------------|
            
Submit corrections

comments powered by Disqus
↑ Back to top | Candlemass Tabs for Mourners Lament. Lyrics for acoustic guitar and electric guitar. Tablatures and chords are parodies/interpretations of the original songs. You may use it for private study, scholarship, research or language learning purposes only