» » »

Incarnation Of Evil Tabs (ver.1)

Artists:  A B C D E F G H I J K L M N O P Q R S T U V W X Y Z # 

Incarnation Of Evil Tabs (ver.1)

Candlemass
Rating:
5/5 (1 vote)

Hard to play? Try these video lessons and learn fast.
                Candlemass - Incarnation of Evil


Intro
eb|-------------------|---|---|---|
Bb|-------------------|---|---|---|
Gb|---5-------5-------|---|---|---|
Db|-2-5-5-8-2-5-3-2---|-2-|-2-|-2-|
Ab|-2-3-5-8-2-3-3-2---|-2-|-2-|-2-|
Eb|-0---3-6-0---1-0~--|-0~|-0~|-0~|

Riff 1a                  1b
eb||------------------||--------------|
Bb||------------------||--------------|
Gb||------------------||--------------|
Db||--------10/9------||--------------|
Ab||---------8/7------||-----------3~-|
Eb||-0-0-0-0-----0-0--||-0-0-0-0---1~-|
     . . . .     . .     . . . .
        
Chorus Riff
eb|-------------------------------|
Bb|-------------------------------|
Gb|-------------------------------|
Db|-5-4---5-4----5---4---5-4-3----|
Ab|-3-2---3-2----3---2---3-2-1-5--|
Eb|----------------------------3--|


Riff 1a                  1c
eb||------------------||----------|
Bb||------------------||----------|
Gb||------------------||----------|
Db||--------10/9------||-----1----|
Ab||---------8/7------||---2------|
Eb||-0-0-0-0-----0-0--||-1-----2--|
     . . . .     . . 

Slide Gb5 back to Bb5 at the end
eb|------------------|
Bb|------------------|
Gb|------------------|
Db|-9----7----5------|
Ab|-9----7----5------|
Eb|-7----5----3------|

Riff 2
eb|----------------------------|----------------------------|
Bb|----------------------------|----------------------------|
Gb|----------------------------|----------------------------|
Db|-5/4-------------5/4---4/8--|-5/4------------------------|
Ab|-5/4-------------5/4---4/8--|-5/4-------------10----9----|
Eb|-3/2-2-2-2-2-2-2-3/2-2-2/6--|-3/2-2-2-2-2-2-2--8----7----|
        . . . . . .     .            . . . . .
            
Hard to play? Try these video lessons and learn fast. | Correct




comments powered by Disqus
↑ Back to top | Tablatures and chords are parodies/interpretations of the original songs. You may use it for private study, scholarship, research or language learning purposes only